  0
SECTION
  2
HEADER
  9
$ACADVER
  1
AC1018
  9
$ACADMAINTVER
 70
     0
  9
$DWGCODEPAGE
  3
ANSI_1252
  9
$INSBASE
 10
0.0
 20
0.0
 30
0.0
  9
$EXTMIN
 10
70.16401489310567
 20
112.369642808922
 30
0.0
  9
$EXTMAX
 10
277.0834797641999
 20
227.1366601424358
 30
0.0
  9
$LIMMIN
 10
0.0
 20
0.0
  9
$LIMMAX
 10
12.0
 20
9.0
  9
$ORTHOMODE
 70
     0
  9
$REGENMODE
 70
     1
  9
$FILLMODE
 70
     1
  9
$QTEXTMODE
 70
     0
  9
$MIRRTEXT
 70
     1
  9
$LTSCALE
 40
1.0
  9
$ATTMODE
 70
     1
  9
$TEXTSIZE
 40
2.5
  9
$TRACEWID
 40
0.05
  9
$TEXTSTYLE
  7
STANDARD
  9
$CLAYER
  8
0
  9
$CELTYPE
  6
BYBLOCK
  9
$CECOLOR
 62
   256
  9
$CELTSCALE
 40
1.0
  9
$DISPSILH
 70
     0
  9
$DIMSCALE
 40
1.0
  9
$DIMASZ
 40
0.18
  9
$DIMEXO
 40
0.0625
  9
$DIMDLI
 40
0.38
  9
$DIMRND
 40
0.0
  9
$DIMDLE
 40
0.0
  9
$DIMEXE
 40
0.18
  9
$DIMTP
 40
0.0
  9
$DIMTM
 40
0.0
  9
$DIMTXT
 40
0.18
  9
$DIMCEN
 40
0.09
  9
$DIMTSZ
 40
0.0
  9
$DIMTOL
 70
     0
  9
$DIMLIM
 70
     0
  9
$DIMTIH
 70
     1
  9
$DIMTOH
 70
     1
  9
$DIMSE1
 70
     0
  9
$DIMSE2
 70
     0
  9
$DIMTAD
 70
     0
  9
$DIMZIN
 70
     0
  9
$DIMBLK
  1

  9
$DIMASO
 70
     1
  9
$DIMSHO
 70
     1
  9
$DIMPOST
  1

  9
$DIMAPOST
  1

  9
$DIMALT
 70
     0
  9
$DIMALTD
 70
     2
  9
$DIMALTF
 40
25.4
  9
$DIMLFAC
 40
1.0
  9
$DIMTOFL
 70
     0
  9
$DIMTVP
 40
0.0
  9
$DIMTIX
 70
     0
  9
$DIMSOXD
 70
     0
  9
$DIMSAH
 70
     0
  9
$DIMBLK1
  1

  9
$DIMBLK2
  1

  9
$DIMSTYLE
  2
ISO-25
  9
$DIMCLRD
 70
     0
  9
$DIMCLRE
 70
     0
  9
$DIMCLRT
 70
     0
  9
$DIMTFAC
 40
1.0
  9
$DIMGAP
 40
0.09
  9
$DIMJUST
 70
     0
  9
$DIMSD1
 70
     0
  9
$DIMSD2
 70
     0
  9
$DIMTOLJ
 70
     1
  9
$DIMTZIN
 70
     0
  9
$DIMALTZ
 70
     0
  9
$DIMALTTZ
 70
     0
  9
$DIMUPT
 70
     0
  9
$DIMDEC
 70
     4
  9
$DIMTDEC
 70
     4
  9
$DIMALTU
 70
     2
  9
$DIMALTTD
 70
     2
  9
$DIMTXSTY
  7
STANDARD
  9
$DIMAUNIT
 70
     0
  9
$DIMADEC
 70
     0
  9
$DIMALTRND
 40
0.0
  9
$DIMAZIN
 70
     0
  9
$DIMDSEP
 70
    44
  9
$DIMATFIT
 70
     3
  9
$DIMFRAC
 70
     0
  9
$DIMLDRBLK
  1

  9
$DIMLUNIT
 70
     2
  9
$DIMLWD
 70
    -2
  9
$DIMLWE
 70
    -2
  9
$DIMTMOVE
 70
     2
  9
$LUNITS
 70
     2
  9
$LUPREC
 70
     4
  9
$SKETCHINC
 40
0.1
  9
$FILLETRAD
 40
0.5
  9
$AUNITS
 70
     0
  9
$AUPREC
 70
     0
  9
$MENU
  1
.
  9
$ELEVATION
 40
0.0
  9
$PELEVATION
 40
0.0
  9
$THICKNESS
 40
0.0
  9
$LIMCHECK
 70
     0
  9
$CHAMFERA
 40
0.0
  9
$CHAMFERB
 40
0.0
  9
$CHAMFERC
 40
0.0
  9
$CHAMFERD
 40
0.0
  9
$SKPOLY
 70
     0
  9
$TDCREATE
 40
2447892.791666667
  9
$TDUCREATE
 40
0.0
  9
$TDUPDATE
 40
2459037.572809062
  9
$TDUUPDATE
 40
2459037.781142396
  9
$TDINDWG
 40
0.0
  9
$TDUSRTIMER
 40
0.0
  9
$USRTIMER
 70
     1
  9
$ANGBASE
 50
0.0
  9
$ANGDIR
 70
     0
  9
$PDMODE
 70
     0
  9
$PDSIZE
 40
0.0
  9
$PLINEWID
 40
0.0
  9
$SPLFRAME
 70
     0
  9
$SPLINETYPE
 70
     6
  9
$SPLINESEGS
 70
     8
  9
$HANDSEED
  5
5A4
  9
$SURFTAB1
 70
     6
  9
$SURFTAB2
 70
     6
  9
$SURFTYPE
 70
     6
  9
$SURFU
 70
     6
  9
$SURFV
 70
     6
  9
$UCSBASE
  2

  9
$UCSNAME
  2

  9
$UCSORG
 10
0.0
 20
0.0
 30
0.0
  9
$UCSXDIR
 10
1.0
 20
0.0
 30
0.0
  9
$UCSYDIR
 10
0.0
 20
1.0
 30
0.0
  9
$UCSORTHOREF
  2

  9
$UCSORTHOVIEW
 70
     0
  9
$UCSORGTOP
 10
0.0
 20
0.0
 30
0.0
  9
$UCSORGBOTTOM
 10
0.0
 20
0.0
 30
0.0
  9
$UCSORGLEFT
 10
0.0
 20
0.0
 30
0.0
  9
$UCSORGRIGHT
 10
0.0
 20
0.0
 30
0.0
  9
$UCSORGFRONT
 10
0.0
 20
0.0
 30
0.0
  9
$UCSORGBACK
 10
0.0
 20
0.0
 30
0.0
  9
$PUCSBASE
  2

  9
$PUCSNAME
  2

  9
$PUCSORG
 10
0.0
 20
0.0
 30
0.0
  9
$PUCSXDIR
 10
1.0
 20
0.0
 30
0.0
  9
$PUCSYDIR
 10
0.0
 20
1.0
 30
0.0
  9
$PUCSORTHOREF
  2

  9
$PUCSORTHOVIEW
 70
     0
  9
$PUCSORGTOP
 10
0.0
 20
0.0
 30
0.0
  9
$PUCSORGBOTTOM
 10
0.0
 20
0.0
 30
0.0
  9
$PUCSORGLEFT
 10
0.0
 20
0.0
 30
0.0
  9
$PUCSORGRIGHT
 10
0.0
 20
0.0
 30
0.0
  9
$PUCSORGFRONT
 10
0.0
 20
0.0
 30
0.0
  9
$PUCSORGBACK
 10
0.0
 20
0.0
 30
0.0
  9
$USERI1
 70
     0
  9
$USERI2
 70
     0
  9
$USERI3
 70
     0
  9
$USERI4
 70
     0
  9
$USERI5
 70
     0
  9
$USERR1
 40
0.0
  9
$USERR2
 40
0.0
  9
$USERR3
 40
0.0
  9
$USERR4
 40
0.0
  9
$USERR5
 40
0.0
  9
$WORLDVIEW
 70
     1
  9
$SHADEDGE
 70
     3
  9
$SHADEDIF
 70
    70
  9
$TILEMODE
 70
     1
  9
$MAXACTVP
 70
    64
  9
$PINSBASE
 10
0.0
 20
0.0
 30
0.0
  9
$PLIMCHECK
 70
     0
  9
$PEXTMIN
 10
1.000000000000000E+20
 20
1.000000000000000E+20
 30
1.000000000000000E+20
  9
$PEXTMAX
 10
-1.000000000000000E+20
 20
-1.000000000000000E+20
 30
-1.000000000000000E+20
  9
$PLIMMIN
 10
0.0
 20
0.0
  9
$PLIMMAX
 10
12.0
 20
9.0
  9
$UNITMODE
 70
     0
  9
$VISRETAIN
 70
     1
  9
$PLINEGEN
 70
     0
  9
$PSLTSCALE
 70
     1
  9
$TREEDEPTH
 70
  3020
  9
$CMLSTYLE
  2
STANDARD
  9
$CMLJUST
 70
     0
  9
$CMLSCALE
 40
1.0
  9
$PROXYGRAPHICS
 70
     1
  9
$MEASUREMENT
 70
     1
  9
$CELWEIGHT
370
    -1
  9
$ENDCAPS
280
     0
  9
$JOINSTYLE
280
     0
  9
$LWDISPLAY
290
     0
  9
$INSUNITS
 70
     4
  9
$HYPERLINKBASE
  1

  9
$STYLESHEET
  1

  9
$XEDIT
290
     1
  9
$CEPSNTYPE
380
     0
  9
$PSTYLEMODE
290
     1
  9
$FINGERPRINTGUID
  2
{705446A6-11D0-4548-8F8C-A97DCA50327D}
  9
$VERSIONGUID
  2
{33328E3A-B6B8-4979-86B7-D70DEC2867C2}
  9
$EXTNAMES
290
     1
  9
$PSVPSCALE
 40
0.0
  9
$OLESTARTUP
290
     0
  9
$SORTENTS
280
   127
  9
$INDEXCTL
280
     0
  9
$HIDETEXT
280
     1
  9
$XCLIPFRAME
290
     0
  9
$HALOGAP
280
     0
  9
$OBSCOLOR
 70
   257
  9
$OBSLTYPE
280
     0
  9
$INTERSECTIONDISPLAY
280
     0
  9
$INTERSECTIONCOLOR
 70
   257
  9
$DIMASSOC
280
     2
  9
$PROJECTNAME
  1

  0
ENDSEC
  0
SECTION
  2
CLASSES
  0
CLASS
  1
ACDBDICTIONARYWDFLT
  2
AcDbDictionaryWithDefault
  3
ObjectDBX Classes
 90
        0
 91
        3
280
     0
281
     0
  0
CLASS
  1
SCALE
  2
AcDbScale
  3
ObjectDBX Classes
 90
     1153
 91
        3
280
     0
281
     0
  0
CLASS
  1
VISUALSTYLE
  2
AcDbVisualStyle
  3
ObjectDBX Classes
 90
     4095
 91
        3
280
     0
281
     0
  0
CLASS
  1
MATERIAL
  2
AcDbMaterial
  3
ObjectDBX Classes
 90
     1153
 91
        3
280
     0
281
     0
  0
CLASS
  1
TABLESTYLE
  2
AcDbTableStyle
  3
ObjectDBX Classes
 90
     4095
 91
        3
280
     0
281
     0
  0
CLASS
  1
MLEADERSTYLE
  2
AcDbMLeaderStyle
  3
ACDB_MLEADERSTYLE_CLASS
 90
     4095
 91
        3
280
     0
281
     0
  0
CLASS
  1
DICTIONARYVAR
  2
AcDbDictionaryVar
  3
ObjectDBX Classes
 90
        0
 91
        3
280
     0
281
     0
  0
CLASS
  1
CELLSTYLEMAP
  2
AcDbCellStyleMap
  3
ObjectDBX Classes
 90
     1152
 91
        3
280
     0
281
     0
  0
ENDSEC
  0
SECTION
  2
TABLES
  0
TABLE
  2
VPORT
  5
8
102
{ACAD_XDICTIONARY
360
55D
102
}
330
0
100
AcDbSymbolTable
 70
     1
  0
VPORT
  5
2E
330
8
100
AcDbSymbolTableRecord
100
AcDbViewportTableRecord
  2
*ACTIVE
 70
     0
 10
0.0
 20
0.0
 11
1.0
 21
1.0
 12
209.9999999999999
 22
148.4999999999999
 13
0.0
 23
0.0
 14
10.0
 24
10.0
 15
10.0
 25
10.0
 16
0.0
 26
0.0
 36
1.0
 17
0.0
 27
0.0
 37
0.0
 40
340.9950045922664
 41
1.239944521497919
 42
50.0
 43
0.0
 44
0.0
 50
0.0
 51
0.0
 71
     0
 72
   100
 73
     1
 74
     3
 75
     0
 76
     0
 77
     0
 78
     0
281
     0
 65
     1
110
0.0
120
0.0
130
0.0
111
1.0
121
0.0
131
0.0
112
0.0
122
1.0
132
0.0
 79
     0
146
0.0
  0
ENDTAB
  0
TABLE
  2
LTYPE
  5
5
330
0
100
AcDbSymbolTable
 70
     1
  0
LTYPE
  5
14
330
5
100
AcDbSymbolTableRecord
100
AcDbLinetypeTableRecord
  2
BYBLOCK
 70
     0
  3

 72
    65
 73
     0
 40
0.0
  0
LTYPE
  5
15
330
5
100
AcDbSymbolTableRecord
100
AcDbLinetypeTableRecord
  2
BYLAYER
 70
     0
  3

 72
    65
 73
     0
 40
0.0
  0
LTYPE
  5
16
330
5
100
AcDbSymbolTableRecord
100
AcDbLinetypeTableRecord
  2
CONTINUOUS
 70
     0
  3
Solid line
 72
    65
 73
     0
 40
0.0
  0
ENDTAB
  0
TABLE
  2
LAYER
  5
2
330
0
100
AcDbSymbolTable
 70
     1
  0
LAYER
  5
10
330
2
100
AcDbSymbolTableRecord
100
AcDbLayerTableRecord
  2
0
 70
     0
 62
     7
  6
CONTINUOUS
370
    -3
390
F
  0
ENDTAB
  0
TABLE
  2
STYLE
  5
3
330
0
100
AcDbSymbolTable
 70
     1
  0
STYLE
  5
11
330
3
100
AcDbSymbolTableRecord
100
AcDbTextStyleTableRecord
  2
STANDARD
 70
     0
 40
0.0
 41
1.0
 50
0.0
 71
     0
 42
2.5
  3
txt
  4

  0
ENDTAB
  0
TABLE
  2
VIEW
  5
6
330
0
100
AcDbSymbolTable
 70
     0
  0
ENDTAB
  0
TABLE
  2
UCS
  5
7
330
0
100
AcDbSymbolTable
 70
     0
  0
ENDTAB
  0
TABLE
  2
APPID
  5
9
330
0
100
AcDbSymbolTable
 70
     3
  0
APPID
  5
12
330
9
100
AcDbSymbolTableRecord
100
AcDbRegAppTableRecord
  2
ACAD
 70
     0
  0
APPID
  5
2B
330
9
100
AcDbSymbolTableRecord
100
AcDbRegAppTableRecord
  2
URBANX
 70
     0
  0
APPID
  5
59B
330
9
100
AcDbSymbolTableRecord
100
AcDbRegAppTableRecord
  2
ACAD_MLEADERVER
 70
     0
  0
ENDTAB
  0
TABLE
  2
DIMSTYLE
  5
A
330
0
100
AcDbSymbolTable
 70
     1
100
AcDbDimStyleTable
  0
DIMSTYLE
105
27
330
A
100
AcDbSymbolTableRecord
100
AcDbDimStyleTableRecord
  2
ISO-25
 70
     0
 41
2.5
 42
0.625
 43
3.75
 44
1.25
 73
     0
 74
     0
 77
     1
 78
     8
140
2.5
141
2.5
143
0.03937007874016
147
0.625
171
     3
172
     1
178
     0
271
     2
272
     2
274
     3
283
     0
284
     8
340
11
  0
ENDTAB
  0
TABLE
  2
BLOCK_RECORD
  5
1
330
0
100
AcDbSymbolTable
 70
     0
  0
BLOCK_RECORD
  5
1F
102
{ACAD_XDICTIONARY
360
52
102
}
330
1
100
AcDbSymbolTableRecord
100
AcDbBlockTableRecord
  2
*MODEL_SPACE
340
53A
  0
BLOCK_RECORD
  5
1B
102
{ACAD_XDICTIONARY
360
50
102
}
330
1
100
AcDbSymbolTableRecord
100
AcDbBlockTableRecord
  2
*PAPER_SPACE
340
53B
  0
ENDTAB
  0
ENDSEC
  0
SECTION
  2
BLOCKS
  0
BLOCK
  5
20
330
1F
100
AcDbEntity
  8
0
100
AcDbBlockBegin
  2
*MODEL_SPACE
 70
     0
 10
0.0
 20
0.0
 30
0.0
  3
*MODEL_SPACE
  1

  0
ENDBLK
  5
21
330
1F
100
AcDbEntity
  8
0
100
AcDbBlockEnd
  0
BLOCK
  5
1C
330
1B
100
AcDbEntity
 67
     1
  8
0
100
AcDbBlockBegin
  2
*PAPER_SPACE
 70
     0
 10
0.0
 20
0.0
 30
0.0
  3
*PAPER_SPACE
  1

  0
ENDBLK
  5
1D
330
1B
100
AcDbEntity
 67
     1
  8
0
100
AcDbBlockEnd
  0
ENDSEC
  0
SECTION
  2
ENTITIES
  0
SPLINE
  5
FF
330
1F
100
AcDbEntity
  8
0
 62
     1
100
AcDbSpline
 70
     0
 71
     3
 72
     8
 73
     4
 74
     0
 42
0.000000001
 43
0.0000001
 40
0.0
 40
0.0
 40
0.0
 40
0.0
 40
1.0
 40
1.0
 40
1.0
 40
1.0
 10
405.874
 20
222.502
 30
0.0
 10
405.874
 20
223.883
 30
0.0
 10
406.993
 20
225.002
 30
0.0
 10
408.372
 20
225.002
 30
0.0
  0
SPLINE
  5
100
330
1F
100
AcDbEntity
  8
0
 62
     1
100
AcDbSpline
 70
     0
 71
     3
 72
     8
 73
     4
 74
     0
 42
0.000000001
 43
0.0000001
 40
0.0
 40
0.0
 40
0.0
 40
0.0
 40
1.0
 40
1.0
 40
1.0
 40
1.0
 10
408.372
 20
225.002
 30
0.0
 10
409.755
 20
225.002
 30
0.0
 10
410.873
 20
223.883
 30
0.0
 10
410.873
 20
222.502
 30
0.0
  0
SPLINE
  5
101
330
1F
100
AcDbEntity
  8
0
 62
     1
100
AcDbSpline
 70
     0
 71
     3
 72
     8
 73
     4
 74
     0
 42
0.000000001
 43
0.0000001
 40
0.0
 40
0.0
 40
0.0
 40
0.0
 40
1.0
 40
1.0
 40
1.0
 40
1.0
 10
410.873
 20
222.502
 30
0.0
 10
410.873
 20
221.121
 30
0.0
 10
409.755
 20
220.002
 30
0.0
 10
408.372
 20
220.002
 30
0.0
  0
SPLINE
  5
102
330
1F
100
AcDbEntity
  8
0
 62
     1
100
AcDbSpline
 70
     0
 71
     3
 72
     8
 73
     4
 74
     0
 42
0.000000001
 43
0.0000001
 40
0.0
 40
0.0
 40
0.0
 40
0.0
 40
1.0
 40
1.0
 40
1.0
 40
1.0
 10
408.372
 20
220.002
 30
0.0
 10
406.993
 20
220.002
 30
0.0
 10
405.874
 20
221.121
 30
0.0
 10
405.874
 20
222.502
 30
0.0
  0
LINE
  5
103
330
1F
100
AcDbEntity
  8
0
 62
     1
100
AcDbLine
 10
405.874
 20
222.502
 30
0.0
 11
405.874
 21
222.502
 31
0.0
  0
SPLINE
  5
104
330
1F
100
AcDbEntity
  8
0
 62
     1
100
AcDbSpline
 70
     0
 71
     3
 72
     8
 73
     4
 74
     0
 42
0.000000001
 43
0.0000001
 40
0.0
 40
0.0
 40
0.0
 40
0.0
 40
1.0
 40
1.0
 40
1.0
 40
1.0
 10
406.873
 20
222.502
 30
0.0
 10
406.873
 20
223.331
 30
0.0
 10
407.547
 20
224.003
 30
0.0
 10
408.372
 20
224.003
 30
0.0
  0
SPLINE
  5
105
330
1F
100
AcDbEntity
  8
0
 62
     1
100
AcDbSpline
 70
     0
 71
     3
 72
     8
 73
     4
 74
     0
 42
0.000000001
 43
0.0000001
 40
0.0
 40
0.0
 40
0.0
 40
0.0
 40
1.0
 40
1.0
 40
1.0
 40
1.0
 10
408.372
 20
224.003
 30
0.0
 10
409.201
 20
224.003
 30
0.0
 10
409.875
 20
223.331
 30
0.0
 10
409.875
 20
222.502
 30
0.0
  0
SPLINE
  5
106
330
1F
100
AcDbEntity
  8
0
 62
     1
100
AcDbSpline
 70
     0
 71
     3
 72
     8
 73
     4
 74
     0
 42
0.000000001
 43
0.0000001
 40
0.0
 40
0.0
 40
0.0
 40
0.0
 40
1.0
 40
1.0
 40
1.0
 40
1.0
 10
409.875
 20
222.502
 30
0.0
 10
409.875
 20
221.674
 30
0.0
 10
409.201
 20
221.003
 30
0.0
 10
408.372
 20
221.003
 30
0.0
  0
SPLINE
  5
107
330
1F
100
AcDbEntity
  8
0
 62
     1
100
AcDbSpline
 70
     0
 71
     3
 72
     8
 73
     4
 74
     0
 42
0.000000001
 43
0.0000001
 40
0.0
 40
0.0
 40
0.0
 40
0.0
 40
1.0
 40
1.0
 40
1.0
 40
1.0
 10
408.372
 20
221.003
 30
0.0
 10
407.547
 20
221.003
 30
0.0
 10
406.873
 20
221.674
 30
0.0
 10
406.873
 20
222.502
 30
0.0
  0
LINE
  5
108
330
1F
100
AcDbEntity
  8
0
 62
     1
100
AcDbLine
 10
406.873
 20
222.502
 30
0.0
 11
406.873
 21
222.502
 31
0.0
  0
SPLINE
  5
109
330
1F
100
AcDbEntity
  8
0
 62
     1
100
AcDbSpline
 70
     0
 71
     3
 72
     8
 73
     4
 74
     0
 42
0.000000001
 43
0.0000001
 40
0.0
 40
0.0
 40
0.0
 40
0.0
 40
1.0
 40
1.0
 40
1.0
 40
1.0
 10
405.874
 20
228.702
 30
0.0
 10
405.874
 20
230.083
 30
0.0
 10
406.993
 20
231.202
 30
0.0
 10
408.372
 20
231.202
 30
0.0
  0
SPLINE
  5
10A
330
1F
100
AcDbEntity
  8
0
 62
     1
100
AcDbSpline
 70
     0
 71
     3
 72
     8
 73
     4
 74
     0
 42
0.000000001
 43
0.0000001
 40
0.0
 40
0.0
 40
0.0
 40
0.0
 40
1.0
 40
1.0
 40
1.0
 40
1.0
 10
408.372
 20
231.202
 30
0.0
 10
409.755
 20
231.202
 30
0.0
 10
410.873
 20
230.083
 30
0.0
 10
410.873
 20
228.702
 30
0.0
  0
SPLINE
  5
10B
330
1F
100
AcDbEntity
  8
0
 62
     1
100
AcDbSpline
 70
     0
 71
     3
 72
     8
 73
     4
 74
     0
 42
0.000000001
 43
0.0000001
 40
0.0
 40
0.0
 40
0.0
 40
0.0
 40
1.0
 40
1.0
 40
1.0
 40
1.0
 10
410.873
 20
228.702
 30
0.0
 10
410.873
 20
227.321
 30
0.0
 10
409.755
 20
226.202
 30
0.0
 10
408.372
 20
226.202
 30
0.0
  0
SPLINE
  5
10C
330
1F
100
AcDbEntity
  8
0
 62
     1
100
AcDbSpline
 70
     0
 71
     3
 72
     8
 73
     4
 74
     0
 42
0.000000001
 43
0.0000001
 40
0.0
 40
0.0
 40
0.0
 40
0.0
 40
1.0
 40
1.0
 40
1.0
 40
1.0
 10
408.372
 20
226.202
 30
0.0
 10
406.993
 20
226.202
 30
0.0
 10
405.874
 20
227.321
 30
0.0
 10
405.874
 20
228.702
 30
0.0
  0
LINE
  5
10D
330
1F
100
AcDbEntity
  8
0
 62
     1
100
AcDbLine
 10
405.874
 20
228.702
 30
0.0
 11
405.874
 21
228.702
 31
0.0
  0
SPLINE
  5
10E
330
1F
100
AcDbEntity
  8
0
 62
     1
100
AcDbSpline
 70
     0
 71
     3
 72
     8
 73
     4
 74
     0
 42
0.000000001
 43
0.0000001
 40
0.0
 40
0.0
 40
0.0
 40
0.0
 40
1.0
 40
1.0
 40
1.0
 40
1.0
 10
406.873
 20
228.702
 30
0.0
 10
406.873
 20
229.53
 30
0.0
 10
407.547
 20
230.203
 30
0.0
 10
408.372
 20
230.203
 30
0.0
  0
SPLINE
  5
10F
330
1F
100
AcDbEntity
  8
0
 62
     1
100
AcDbSpline
 70
     0
 71
     3
 72
     8
 73
     4
 74
     0
 42
0.000000001
 43
0.0000001
 40
0.0
 40
0.0
 40
0.0
 40
0.0
 40
1.0
 40
1.0
 40
1.0
 40
1.0
 10
408.372
 20
230.203
 30
0.0
 10
409.201
 20
230.203
 30
0.0
 10
409.875
 20
229.53
 30
0.0
 10
409.875
 20
228.702
 30
0.0
  0
SPLINE
  5
110
330
1F
100
AcDbEntity
  8
0
 62
     1
100
AcDbSpline
 70
     0
 71
     3
 72
     8
 73
     4
 74
     0
 42
0.000000001
 43
0.0000001
 40
0.0
 40
0.0
 40
0.0
 40
0.0
 40
1.0
 40
1.0
 40
1.0
 40
1.0
 10
409.875
 20
228.702
 30
0.0
 10
409.875
 20
227.874
 30
0.0
 10
409.201
 20
227.203
 30
0.0
 10
408.372
 20
227.203
 30
0.0
  0
SPLINE
  5
111
330
1F
100
AcDbEntity
  8
0
 62
     1
100
AcDbSpline
 70
     0
 71
     3
 72
     8
 73
     4
 74
     0
 42
0.000000001
 43
0.0000001
 40
0.0
 40
0.0
 40
0.0
 40
0.0
 40
1.0
 40
1.0
 40
1.0
 40
1.0
 10
408.372
 20
227.203
 30
0.0
 10
407.547
 20
227.203
 30
0.0
 10
406.873
 20
227.874
 30
0.0
 10
406.873
 20
228.702
 30
0.0
  0
LINE
  5
112
330
1F
100
AcDbEntity
  8
0
 62
     1
100
AcDbLine
 10
406.873
 20
228.702
 30
0.0
 11
406.873
 21
228.702
 31
0.0
  0
SPLINE
  5
113
330
1F
100
AcDbEntity
  8
0
 62
     1
100
AcDbSpline
 70
     0
 71
     3
 72
     8
 73
     4
 74
     0
 42
0.000000001
 43
0.0000001
 40
0.0
 40
0.0
 40
0.0
 40
0.0
 40
1.0
 40
1.0
 40
1.0
 40
1.0
 10
411.875
 20
222.502
 30
0.0
 10
411.875
 20
223.883
 30
0.0
 10
412.993
 20
225.002
 30
0.0
 10
414.373
 20
225.002
 30
0.0
  0
SPLINE
  5
114
330
1F
100
AcDbEntity
  8
0
 62
     1
100
AcDbSpline
 70
     0
 71
     3
 72
     8
 73
     4
 74
     0
 42
0.000000001
 43
0.0000001
 40
0.0
 40
0.0
 40
0.0
 40
0.0
 40
1.0
 40
1.0
 40
1.0
 40
1.0
 10
414.373
 20
225.002
 30
0.0
 10
415.756
 20
225.002
 30
0.0
 10
416.874
 20
223.883
 30
0.0
 10
416.874
 20
222.502
 30
0.0
  0
SPLINE
  5
115
330
1F
100
AcDbEntity
  8
0
 62
     1
100
AcDbSpline
 70
     0
 71
     3
 72
     8
 73
     4
 74
     0
 42
0.000000001
 43
0.0000001
 40
0.0
 40
0.0
 40
0.0
 40
0.0
 40
1.0
 40
1.0
 40
1.0
 40
1.0
 10
416.874
 20
222.502
 30
0.0
 10
416.874
 20
221.121
 30
0.0
 10
415.756
 20
220.002
 30
0.0
 10
414.373
 20
220.002
 30
0.0
  0
SPLINE
  5
116
330
1F
100
AcDbEntity
  8
0
 62
     1
100
AcDbSpline
 70
     0
 71
     3
 72
     8
 73
     4
 74
     0
 42
0.000000001
 43
0.0000001
 40
0.0
 40
0.0
 40
0.0
 40
0.0
 40
1.0
 40
1.0
 40
1.0
 40
1.0
 10
414.373
 20
220.002
 30
0.0
 10
412.993
 20
220.002
 30
0.0
 10
411.875
 20
221.121
 30
0.0
 10
411.875
 20
222.502
 30
0.0
  0
LINE
  5
117
330
1F
100
AcDbEntity
  8
0
 62
     1
100
AcDbLine
 10
411.875
 20
222.502
 30
0.0
 11
411.875
 21
222.502
 31
0.0
  0
SPLINE
  5
118
330
1F
100
AcDbEntity
  8
0
 62
     1
100
AcDbSpline
 70
     0
 71
     3
 72
     8
 73
     4
 74
     0
 42
0.000000001
 43
0.0000001
 40
0.0
 40
0.0
 40
0.0
 40
0.0
 40
1.0
 40
1.0
 40
1.0
 40
1.0
 10
412.873
 20
222.502
 30
0.0
 10
412.873
 20
223.331
 30
0.0
 10
413.544
 20
224.003
 30
0.0
 10
414.373
 20
224.003
 30
0.0
  0
SPLINE
  5
119
330
1F
100
AcDbEntity
  8
0
 62
     1
100
AcDbSpline
 70
     0
 71
     3
 72
     8
 73
     4
 74
     0
 42
0.000000001
 43
0.0000001
 40
0.0
 40
0.0
 40
0.0
 40
0.0
 40
1.0
 40
1.0
 40
1.0
 40
1.0
 10
414.373
 20
224.003
 30
0.0
 10
415.202
 20
224.003
 30
0.0
 10
415.876
 20
223.331
 30
0.0
 10
415.876
 20
222.502
 30
0.0
  0
SPLINE
  5
11A
330
1F
100
AcDbEntity
  8
0
 62
     1
100
AcDbSpline
 70
     0
 71
     3
 72
     8
 73
     4
 74
     0
 42
0.000000001
 43
0.0000001
 40
0.0
 40
0.0
 40
0.0
 40
0.0
 40
1.0
 40
1.0
 40
1.0
 40
1.0
 10
415.876
 20
222.502
 30
0.0
 10
415.876
 20
221.674
 30
0.0
 10
415.202
 20
221.003
 30
0.0
 10
414.373
 20
221.003
 30
0.0
  0
SPLINE
  5
11B
330
1F
100
AcDbEntity
  8
0
 62
     1
100
AcDbSpline
 70
     0
 71
     3
 72
     8
 73
     4
 74
     0
 42
0.000000001
 43
0.0000001
 40
0.0
 40
0.0
 40
0.0
 40
0.0
 40
1.0
 40
1.0
 40
1.0
 40
1.0
 10
414.373
 20
221.003
 30
0.0
 10
413.544
 20
221.003
 30
0.0
 10
412.873
 20
221.674
 30
0.0
 10
412.873
 20
222.502
 30
0.0
  0
LINE
  5
11C
330
1F
100
AcDbEntity
  8
0
 62
     1
100
AcDbLine
 10
412.873
 20
222.502
 30
0.0
 11
412.873
 21
222.502
 31
0.0
  0
SPLINE
  5
11D
330
1F
100
AcDbEntity
  8
0
 62
     1
100
AcDbSpline
 70
     0
 71
     3
 72
     8
 73
     4
 74
     0
 42
0.000000001
 43
0.0000001
 40
0.0
 40
0.0
 40
0.0
 40
0.0
 40
1.0
 40
1.0
 40
1.0
 40
1.0
 10
411.875
 20
228.702
 30
0.0
 10
411.875
 20
230.083
 30
0.0
 10
412.993
 20
231.202
 30
0.0
 10
414.373
 20
231.202
 30
0.0
  0
SPLINE
  5
11E
330
1F
100
AcDbEntity
  8
0
 62
     1
100
AcDbSpline
 70
     0
 71
     3
 72
     8
 73
     4
 74
     0
 42
0.000000001
 43
0.0000001
 40
0.0
 40
0.0
 40
0.0
 40
0.0
 40
1.0
 40
1.0
 40
1.0
 40
1.0
 10
414.373
 20
231.202
 30
0.0
 10
415.756
 20
231.202
 30
0.0
 10
416.874
 20
230.083
 30
0.0
 10
416.874
 20
228.702
 30
0.0
  0
SPLINE
  5
11F
330
1F
100
AcDbEntity
  8
0
 62
     1
100
AcDbSpline
 70
     0
 71
     3
 72
     8
 73
     4
 74
     0
 42
0.000000001
 43
0.0000001
 40
0.0
 40
0.0
 40
0.0
 40
0.0
 40
1.0
 40
1.0
 40
1.0
 40
1.0
 10
416.874
 20
228.702
 30
0.0
 10
416.874
 20
227.321
 30
0.0
 10
415.756
 20
226.202
 30
0.0
 10
414.373
 20
226.202
 30
0.0
  0
SPLINE
  5
120
330
1F
100
AcDbEntity
  8
0
 62
     1
100
AcDbSpline
 70
     0
 71
     3
 72
     8
 73
     4
 74
     0
 42
0.000000001
 43
0.0000001
 40
0.0
 40
0.0
 40
0.0
 40
0.0
 40
1.0
 40
1.0
 40
1.0
 40
1.0
 10
414.373
 20
226.202
 30
0.0
 10
412.993
 20
226.202
 30
0.0
 10
411.875
 20
227.321
 30
0.0
 10
411.875
 20
228.702
 30
0.0
  0
LINE
  5
121
330
1F
100
AcDbEntity
  8
0
 62
     1
100
AcDbLine
 10
411.875
 20
228.702
 30
0.0
 11
411.875
 21
228.702
 31
0.0
  0
SPLINE
  5
122
330
1F
100
AcDbEntity
  8
0
 62
     1
100
AcDbSpline
 70
     0
 71
     3
 72
     8
 73
     4
 74
     0
 42
0.000000001
 43
0.0000001
 40
0.0
 40
0.0
 40
0.0
 40
0.0
 40
1.0
 40
1.0
 40
1.0
 40
1.0
 10
412.873
 20
228.702
 30
0.0
 10
412.873
 20
229.53
 30
0.0
 10
413.544
 20
230.203
 30
0.0
 10
414.373
 20
230.203
 30
0.0
  0
SPLINE
  5
123
330
1F
100
AcDbEntity
  8
0
 62
     1
100
AcDbSpline
 70
     0
 71
     3
 72
     8
 73
     4
 74
     0
 42
0.000000001
 43
0.0000001
 40
0.0
 40
0.0
 40
0.0
 40
0.0
 40
1.0
 40
1.0
 40
1.0
 40
1.0
 10
414.373
 20
230.203
 30
0.0
 10
415.202
 20
230.203
 30
0.0
 10
415.876
 20
229.53
 30
0.0
 10
415.876
 20
228.702
 30
0.0
  0
SPLINE
  5
124
330
1F
100
AcDbEntity
  8
0
 62
     1
100
AcDbSpline
 70
     0
 71
     3
 72
     8
 73
     4
 74
     0
 42
0.000000001
 43
0.0000001
 40
0.0
 40
0.0
 40
0.0
 40
0.0
 40
1.0
 40
1.0
 40
1.0
 40
1.0
 10
415.876
 20
228.702
 30
0.0
 10
415.876
 20
227.874
 30
0.0
 10
415.202
 20
227.203
 30
0.0
 10
414.373
 20
227.203
 30
0.0
  0
SPLINE
  5
125
330
1F
100
AcDbEntity
  8
0
 62
     1
100
AcDbSpline
 70
     0
 71
     3
 72
     8
 73
     4
 74
     0
 42
0.000000001
 43
0.0000001
 40
0.0
 40
0.0
 40
0.0
 40
0.0
 40
1.0
 40
1.0
 40
1.0
 40
1.0
 10
414.373
 20
227.203
 30
0.0
 10
413.544
 20
227.203
 30
0.0
 10
412.873
 20
227.874
 30
0.0
 10
412.873
 20
228.702
 30
0.0
  0
LINE
  5
126
330
1F
100
AcDbEntity
  8
0
 62
     1
100
AcDbLine
 10
412.873
 20
228.702
 30
0.0
 11
412.873
 21
228.702
 31
0.0
  0
SPLINE
  5
127
330
1F
100
AcDbEntity
  8
0
 62
     1
100
AcDbSpline
 70
     0
 71
     3
 72
     8
 73
     4
 74
     0
 42
0.000000001
 43
0.0000001
 40
0.0
 40
0.0
 40
0.0
 40
0.0
 40
1.0
 40
1.0
 40
1.0
 40
1.0
 10
406.171
 20
209.962
 30
0.0
 10
406.171
 20
211.341
 30
0.0
 10
407.289
 20
212.462
 30
0.0
 10
408.668
 20
212.462
 30
0.0
  0
SPLINE
  5
128
330
1F
100
AcDbEntity
  8
0
 62
     1
100
AcDbSpline
 70
     0
 71
     3
 72
     8
 73
     4
 74
     0
 42
0.000000001
 43
0.0000001
 40
0.0
 40
0.0
 40
0.0
 40
0.0
 40
1.0
 40
1.0
 40
1.0
 40
1.0
 10
408.668
 20
212.462
 30
0.0
 10
410.051
 20
212.462
 30
0.0
 10
411.17
 20
211.341
 30
0.0
 10
411.17
 20
209.962
 30
0.0
  0
SPLINE
  5
129
330
1F
100
AcDbEntity
  8
0
 62
     1
100
AcDbSpline
 70
     0
 71
     3
 72
     8
 73
     4
 74
     0
 42
0.000000001
 43
0.0000001
 40
0.0
 40
0.0
 40
0.0
 40
0.0
 40
1.0
 40
1.0
 40
1.0
 40
1.0
 10
411.17
 20
209.962
 30
0.0
 10
411.17
 20
208.581
 30
0.0
 10
410.051
 20
207.461
 30
0.0
 10
408.668
 20
207.461
 30
0.0
  0
SPLINE
  5
12A
330
1F
100
AcDbEntity
  8
0
 62
     1
100
AcDbSpline
 70
     0
 71
     3
 72
     8
 73
     4
 74
     0
 42
0.000000001
 43
0.0000001
 40
0.0
 40
0.0
 40
0.0
 40
0.0
 40
1.0
 40
1.0
 40
1.0
 40
1.0
 10
408.668
 20
207.461
 30
0.0
 10
407.289
 20
207.461
 30
0.0
 10
406.171
 20
208.581
 30
0.0
 10
406.171
 20
209.962
 30
0.0
  0
LINE
  5
12B
330
1F
100
AcDbEntity
  8
0
 62
     1
100
AcDbLine
 10
406.171
 20
209.962
 30
0.0
 11
406.171
 21
209.962
 31
0.0
  0
SPLINE
  5
12C
330
1F
100
AcDbEntity
  8
0
 62
     1
100
AcDbSpline
 70
     0
 71
     3
 72
     8
 73
     4
 74
     0
 42
0.000000001
 43
0.0000001
 40
0.0
 40
0.0
 40
0.0
 40
0.0
 40
1.0
 40
1.0
 40
1.0
 40
1.0
 10
407.169
 20
209.962
 30
0.0
 10
407.169
 20
210.79
 30
0.0
 10
407.843
 20
211.461
 30
0.0
 10
408.668
 20
211.461
 30
0.0
  0
SPLINE
  5
12D
330
1F
100
AcDbEntity
  8
0
 62
     1
100
AcDbSpline
 70
     0
 71
     3
 72
     8
 73
     4
 74
     0
 42
0.000000001
 43
0.0000001
 40
0.0
 40
0.0
 40
0.0
 40
0.0
 40
1.0
 40
1.0
 40
1.0
 40
1.0
 10
408.668
 20
211.461
 30
0.0
 10
409.497
 20
211.461
 30
0.0
 10
410.171
 20
210.79
 30
0.0
 10
410.171
 20
209.962
 30
0.0
  0
SPLINE
  5
12E
330
1F
100
AcDbEntity
  8
0
 62
     1
100
AcDbSpline
 70
     0
 71
     3
 72
     8
 73
     4
 74
     0
 42
0.000000001
 43
0.0000001
 40
0.0
 40
0.0
 40
0.0
 40
0.0
 40
1.0
 40
1.0
 40
1.0
 40
1.0
 10
410.171
 20
209.962
 30
0.0
 10
410.171
 20
209.132
 30
0.0
 10
409.497
 20
208.461
 30
0.0
 10
408.668
 20
208.461
 30
0.0
  0
SPLINE
  5
12F
330
1F
100
AcDbEntity
  8
0
 62
     1
100
AcDbSpline
 70
     0
 71
     3
 72
     8
 73
     4
 74
     0
 42
0.000000001
 43
0.0000001
 40
0.0
 40
0.0
 40
0.0
 40
0.0
 40
1.0
 40
1.0
 40
1.0
 40
1.0
 10
408.668
 20
208.461
 30
0.0
 10
407.843
 20
208.461
 30
0.0
 10
407.169
 20
209.132
 30
0.0
 10
407.169
 20
209.962
 30
0.0
  0
LINE
  5
130
330
1F
100
AcDbEntity
  8
0
 62
     1
100
AcDbLine
 10
407.169
 20
209.962
 30
0.0
 11
407.169
 21
209.962
 31
0.0
  0
SPLINE
  5
131
330
1F
100
AcDbEntity
  8
0
 62
     1
100
AcDbSpline
 70
     0
 71
     3
 72
     8
 73
     4
 74
     0
 42
0.000000001
 43
0.0000001
 40
0.0
 40
0.0
 40
0.0
 40
0.0
 40
1.0
 40
1.0
 40
1.0
 40
1.0
 10
406.171
 20
216.162
 30
0.0
 10
406.171
 20
217.543
 30
0.0
 10
407.289
 20
218.662
 30
0.0
 10
408.668
 20
218.662
 30
0.0
  0
SPLINE
  5
132
330
1F
100
AcDbEntity
  8
0
 62
     1
100
AcDbSpline
 70
     0
 71
     3
 72
     8
 73
     4
 74
     0
 42
0.000000001
 43
0.0000001
 40
0.0
 40
0.0
 40
0.0
 40
0.0
 40
1.0
 40
1.0
 40
1.0
 40
1.0
 10
408.668
 20
218.662
 30
0.0
 10
410.051
 20
218.662
 30
0.0
 10
411.17
 20
217.543
 30
0.0
 10
411.17
 20
216.162
 30
0.0
  0
SPLINE
  5
133
330
1F
100
AcDbEntity
  8
0
 62
     1
100
AcDbSpline
 70
     0
 71
     3
 72
     8
 73
     4
 74
     0
 42
0.000000001
 43
0.0000001
 40
0.0
 40
0.0
 40
0.0
 40
0.0
 40
1.0
 40
1.0
 40
1.0
 40
1.0
 10
411.17
 20
216.162
 30
0.0
 10
411.17
 20
214.781
 30
0.0
 10
410.051
 20
213.662
 30
0.0
 10
408.668
 20
213.662
 30
0.0
  0
SPLINE
  5
134
330
1F
100
AcDbEntity
  8
0
 62
     1
100
AcDbSpline
 70
     0
 71
     3
 72
     8
 73
     4
 74
     0
 42
0.000000001
 43
0.0000001
 40
0.0
 40
0.0
 40
0.0
 40
0.0
 40
1.0
 40
1.0
 40
1.0
 40
1.0
 10
408.668
 20
213.662
 30
0.0
 10
407.289
 20
213.662
 30
0.0
 10
406.171
 20
214.781
 30
0.0
 10
406.171
 20
216.162
 30
0.0
  0
LINE
  5
135
330
1F
100
AcDbEntity
  8
0
 62
     1
100
AcDbLine
 10
406.171
 20
216.162
 30
0.0
 11
406.171
 21
216.162
 31
0.0
  0
SPLINE
  5
136
330
1F
100
AcDbEntity
  8
0
 62
     1
100
AcDbSpline
 70
     0
 71
     3
 72
     8
 73
     4
 74
     0
 42
0.000000001
 43
0.0000001
 40
0.0
 40
0.0
 40
0.0
 40
0.0
 40
1.0
 40
1.0
 40
1.0
 40
1.0
 10
407.169
 20
216.162
 30
0.0
 10
407.169
 20
216.99
 30
0.0
 10
407.843
 20
217.661
 30
0.0
 10
408.668
 20
217.661
 30
0.0
  0
SPLINE
  5
137
330
1F
100
AcDbEntity
  8
0
 62
     1
100
AcDbSpline
 70
     0
 71
     3
 72
     8
 73
     4
 74
     0
 42
0.000000001
 43
0.0000001
 40
0.0
 40
0.0
 40
0.0
 40
0.0
 40
1.0
 40
1.0
 40
1.0
 40
1.0
 10
408.668
 20
217.661
 30
0.0
 10
409.497
 20
217.661
 30
0.0
 10
410.171
 20
216.99
 30
0.0
 10
410.171
 20
216.162
 30
0.0
  0
SPLINE
  5
138
330
1F
100
AcDbEntity
  8
0
 62
     1
100
AcDbSpline
 70
     0
 71
     3
 72
     8
 73
     4
 74
     0
 42
0.000000001
 43
0.0000001
 40
0.0
 40
0.0
 40
0.0
 40
0.0
 40
1.0
 40
1.0
 40
1.0
 40
1.0
 10
410.171
 20
216.162
 30
0.0
 10
410.171
 20
215.334
 30
0.0
 10
409.497
 20
214.661
 30
0.0
 10
408.668
 20
214.661
 30
0.0
  0
SPLINE
  5
139
330
1F
100
AcDbEntity
  8
0
 62
     1
100
AcDbSpline
 70
     0
 71
     3
 72
     8
 73
     4
 74
     0
 42
0.000000001
 43
0.0000001
 40
0.0
 40
0.0
 40
0.0
 40
0.0
 40
1.0
 40
1.0
 40
1.0
 40
1.0
 10
408.668
 20
214.661
 30
0.0
 10
407.843
 20
214.661
 30
0.0
 10
407.169
 20
215.334
 30
0.0
 10
407.169
 20
216.162
 30
0.0
  0
LINE
  5
13A
330
1F
100
AcDbEntity
  8
0
 62
     1
100
AcDbLine
 10
407.169
 20
216.162
 30
0.0
 11
407.169
 21
216.162
 31
0.0
  0
SPLINE
  5
13B
330
1F
100
AcDbEntity
  8
0
 62
     1
100
AcDbSpline
 70
     0
 71
     3
 72
     8
 73
     4
 74
     0
 42
0.000000001
 43
0.0000001
 40
0.0
 40
0.0
 40
0.0
 40
0.0
 40
1.0
 40
1.0
 40
1.0
 40
1.0
 10
412.171
 20
209.962
 30
0.0
 10
412.171
 20
211.341
 30
0.0
 10
413.29
 20
212.462
 30
0.0
 10
414.669
 20
212.462
 30
0.0
  0
SPLINE
  5
13C
330
1F
100
AcDbEntity
  8
0
 62
     1
100
AcDbSpline
 70
     0
 71
     3
 72
     8
 73
     4
 74
     0
 42
0.000000001
 43
0.0000001
 40
0.0
 40
0.0
 40
0.0
 40
0.0
 40
1.0
 40
1.0
 40
1.0
 40
1.0
 10
414.669
 20
212.462
 30
0.0
 10
416.052
 20
212.462
 30
0.0
 10
417.17
 20
211.341
 30
0.0
 10
417.17
 20
209.962
 30
0.0
  0
SPLINE
  5
13D
330
1F
100
AcDbEntity
  8
0
 62
     1
100
AcDbSpline
 70
     0
 71
     3
 72
     8
 73
     4
 74
     0
 42
0.000000001
 43
0.0000001
 40
0.0
 40
0.0
 40
0.0
 40
0.0
 40
1.0
 40
1.0
 40
1.0
 40
1.0
 10
417.17
 20
209.962
 30
0.0
 10
417.17
 20
208.581
 30
0.0
 10
416.052
 20
207.461
 30
0.0
 10
414.669
 20
207.461
 30
0.0
  0
SPLINE
  5
13E
330
1F
100
AcDbEntity
  8
0
 62
     1
100
AcDbSpline
 70
     0
 71
     3
 72
     8
 73
     4
 74
     0
 42
0.000000001
 43
0.0000001
 40
0.0
 40
0.0
 40
0.0
 40
0.0
 40
1.0
 40
1.0
 40
1.0
 40
1.0
 10
414.669
 20
207.461
 30
0.0
 10
413.29
 20
207.461
 30
0.0
 10
412.171
 20
208.581
 30
0.0
 10
412.171
 20
209.962
 30
0.0
  0
LINE
  5
13F
330
1F
100
AcDbEntity
  8
0
 62
     1
100
AcDbLine
 10
412.171
 20
209.962
 30
0.0
 11
412.171
 21
209.962
 31
0.0
  0
SPLINE
  5
140
330
1F
100
AcDbEntity
  8
0
 62
     1
100
AcDbSpline
 70
     0
 71
     3
 72
     8
 73
     4
 74
     0
 42
0.000000001
 43
0.0000001
 40
0.0
 40
0.0
 40
0.0
 40
0.0
 40
1.0
 40
1.0
 40
1.0
 40
1.0
 10
413.17
 20
209.962
 30
0.0
 10
413.17
 20
210.79
 30
0.0
 10
413.84
 20
211.461
 30
0.0
 10
414.669
 20
211.461
 30
0.0
  0
SPLINE
  5
141
330
1F
100
AcDbEntity
  8
0
 62
     1
100
AcDbSpline
 70
     0
 71
     3
 72
     8
 73
     4
 74
     0
 42
0.000000001
 43
0.0000001
 40
0.0
 40
0.0
 40
0.0
 40
0.0
 40
1.0
 40
1.0
 40
1.0
 40
1.0
 10
414.669
 20
211.461
 30
0.0
 10
415.498
 20
211.461
 30
0.0
 10
416.168
 20
210.79
 30
0.0
 10
416.168
 20
209.962
 30
0.0
  0
SPLINE
  5
142
330
1F
100
AcDbEntity
  8
0
 62
     1
100
AcDbSpline
 70
     0
 71
     3
 72
     8
 73
     4
 74
     0
 42
0.000000001
 43
0.0000001
 40
0.0
 40
0.0
 40
0.0
 40
0.0
 40
1.0
 40
1.0
 40
1.0
 40
1.0
 10
416.168
 20
209.962
 30
0.0
 10
416.168
 20
209.132
 30
0.0
 10
415.498
 20
208.461
 30
0.0
 10
414.669
 20
208.461
 30
0.0
  0
SPLINE
  5
143
330
1F
100
AcDbEntity
  8
0
 62
     1
100
AcDbSpline
 70
     0
 71
     3
 72
     8
 73
     4
 74
     0
 42
0.000000001
 43
0.0000001
 40
0.0
 40
0.0
 40
0.0
 40
0.0
 40
1.0
 40
1.0
 40
1.0
 40
1.0
 10
414.669
 20
208.461
 30
0.0
 10
413.84
 20
208.461
 30
0.0
 10
413.17
 20
209.132
 30
0.0
 10
413.17
 20
209.962
 30
0.0
  0
LINE
  5
144
330
1F
100
AcDbEntity
  8
0
 62
     1
100
AcDbLine
 10
413.17
 20
209.962
 30
0.0
 11
413.17
 21
209.962
 31
0.0
  0
SPLINE
  5
145
330
1F
100
AcDbEntity
  8
0
 62
     1
100
AcDbSpline
 70
     0
 71
     3
 72
     8
 73
     4
 74
     0
 42
0.000000001
 43
0.0000001
 40
0.0
 40
0.0
 40
0.0
 40
0.0
 40
1.0
 40
1.0
 40
1.0
 40
1.0
 10
412.171
 20
216.162
 30
0.0
 10
412.171
 20
217.543
 30
0.0
 10
413.29
 20
218.662
 30
0.0
 10
414.669
 20
218.662
 30
0.0
  0
SPLINE
  5
146
330
1F
100
AcDbEntity
  8
0
 62
     1
100
AcDbSpline
 70
     0
 71
     3
 72
     8
 73
     4
 74
     0
 42
0.000000001
 43
0.0000001
 40
0.0
 40
0.0
 40
0.0
 40
0.0
 40
1.0
 40
1.0
 40
1.0
 40
1.0
 10
414.669
 20
218.662
 30
0.0
 10
416.052
 20
218.662
 30
0.0
 10
417.17
 20
217.543
 30
0.0
 10
417.17
 20
216.162
 30
0.0
  0
SPLINE
  5
147
330
1F
100
AcDbEntity
  8
0
 62
     1
100
AcDbSpline
 70
     0
 71
     3
 72
     8
 73
     4
 74
     0
 42
0.000000001
 43
0.0000001
 40
0.0
 40
0.0
 40
0.0
 40
0.0
 40
1.0
 40
1.0
 40
1.0
 40
1.0
 10
417.17
 20
216.162
 30
0.0
 10
417.17
 20
214.781
 30
0.0
 10
416.052
 20
213.662
 30
0.0
 10
414.669
 20
213.662
 30
0.0
  0
SPLINE
  5
148
330
1F
100
AcDbEntity
  8
0
 62
     1
100
AcDbSpline
 70
     0
 71
     3
 72
     8
 73
     4
 74
     0
 42
0.000000001
 43
0.0000001
 40
0.0
 40
0.0
 40
0.0
 40
0.0
 40
1.0
 40
1.0
 40
1.0
 40
1.0
 10
414.669
 20
213.662
 30
0.0
 10
413.29
 20
213.662
 30
0.0
 10
412.171
 20
214.781
 30
0.0
 10
412.171
 20
216.162
 30
0.0
  0
LINE
  5
149
330
1F
100
AcDbEntity
  8
0
 62
     1
100
AcDbLine
 10
412.171
 20
216.162
 30
0.0
 11
412.171
 21
216.162
 31
0.0
  0
SPLINE
  5
14A
330
1F
100
AcDbEntity
  8
0
 62
     1
100
AcDbSpline
 70
     0
 71
     3
 72
     8
 73
     4
 74
     0
 42
0.000000001
 43
0.0000001
 40
0.0
 40
0.0
 40
0.0
 40
0.0
 40
1.0
 40
1.0
 40
1.0
 40
1.0
 10
413.17
 20
216.162
 30
0.0
 10
413.17
 20
216.99
 30
0.0
 10
413.84
 20
217.661
 30
0.0
 10
414.669
 20
217.661
 30
0.0
  0
SPLINE
  5
14B
330
1F
100
AcDbEntity
  8
0
 62
     1
100
AcDbSpline
 70
     0
 71
     3
 72
     8
 73
     4
 74
     0
 42
0.000000001
 43
0.0000001
 40
0.0
 40
0.0
 40
0.0
 40
0.0
 40
1.0
 40
1.0
 40
1.0
 40
1.0
 10
414.669
 20
217.661
 30
0.0
 10
415.498
 20
217.661
 30
0.0
 10
416.168
 20
216.99
 30
0.0
 10
416.168
 20
216.162
 30
0.0
  0
SPLINE
  5
14C
330
1F
100
AcDbEntity
  8
0
 62
     1
100
AcDbSpline
 70
     0
 71
     3
 72
     8
 73
     4
 74
     0
 42
0.000000001
 43
0.0000001
 40
0.0
 40
0.0
 40
0.0
 40
0.0
 40
1.0
 40
1.0
 40
1.0
 40
1.0
 10
416.168
 20
216.162
 30
0.0
 10
416.168
 20
215.334
 30
0.0
 10
415.498
 20
214.661
 30
0.0
 10
414.669
 20
214.661
 30
0.0
  0
SPLINE
  5
14D
330
1F
100
AcDbEntity
  8
0
 62
     1
100
AcDbSpline
 70
     0
 71
     3
 72
     8
 73
     4
 74
     0
 42
0.000000001
 43
0.0000001
 40
0.0
 40
0.0
 40
0.0
 40
0.0
 40
1.0
 40
1.0
 40
1.0
 40
1.0
 10
414.669
 20
214.661
 30
0.0
 10
413.84
 20
214.661
 30
0.0
 10
413.17
 20
215.334
 30
0.0
 10
413.17
 20
216.162
 30
0.0
  0
LINE
  5
14E
330
1F
100
AcDbEntity
  8
0
 62
     1
100
AcDbLine
 10
413.17
 20
216.162
 30
0.0
 11
413.17
 21
216.162
 31
0.0
  0
SPLINE
  5
14F
330
1F
100
AcDbEntity
  8
0
 62
     1
100
AcDbSpline
 70
     0
 71
     3
 72
     8
 73
     4
 74
     0
 42
0.000000001
 43
0.0000001
 40
0.0
 40
0.0
 40
0.0
 40
0.0
 40
1.0
 40
1.0
 40
1.0
 40
1.0
 10
393.517
 20
210.013
 30
0.0
 10
393.517
 20
211.394
 30
0.0
 10
394.638
 20
212.513
 30
0.0
 10
396.018
 20
212.513
 30
0.0
  0
SPLINE
  5
150
330
1F
100
AcDbEntity
  8
0
 62
     1
100
AcDbSpline
 70
     0
 71
     3
 72
     8
 73
     4
 74
     0
 42
0.000000001
 43
0.0000001
 40
0.0
 40
0.0
 40
0.0
 40
0.0
 40
1.0
 40
1.0
 40
1.0
 40
1.0
 10
396.018
 20
212.513
 30
0.0
 10
397.397
 20
212.513
 30
0.0
 10
398.519
 20
211.394
 30
0.0
 10
398.519
 20
210.013
 30
0.0
  0
SPLINE
  5
151
330
1F
100
AcDbEntity
  8
0
 62
     1
100
AcDbSpline
 70
     0
 71
     3
 72
     8
 73
     4
 74
     0
 42
0.000000001
 43
0.0000001
 40
0.0
 40
0.0
 40
0.0
 40
0.0
 40
1.0
 40
1.0
 40
1.0
 40
1.0
 10
398.519
 20
210.013
 30
0.0
 10
398.519
 20
208.632
 30
0.0
 10
397.397
 20
207.513
 30
0.0
 10
396.018
 20
207.513
 30
0.0
  0
SPLINE
  5
152
330
1F
100
AcDbEntity
  8
0
 62
     1
100
AcDbSpline
 70
     0
 71
     3
 72
     8
 73
     4
 74
     0
 42
0.000000001
 43
0.0000001
 40
0.0
 40
0.0
 40
0.0
 40
0.0
 40
1.0
 40
1.0
 40
1.0
 40
1.0
 10
396.018
 20
207.513
 30
0.0
 10
394.638
 20
207.513
 30
0.0
 10
393.517
 20
208.632
 30
0.0
 10
393.517
 20
210.013
 30
0.0
  0
LINE
  5
153
330
1F
100
AcDbEntity
  8
0
 62
     1
100
AcDbLine
 10
393.517
 20
210.013
 30
0.0
 11
393.517
 21
210.013
 31
0.0
  0
SPLINE
  5
154
330
1F
100
AcDbEntity
  8
0
 62
     1
100
AcDbSpline
 70
     0
 71
     3
 72
     8
 73
     4
 74
     0
 42
0.000000001
 43
0.0000001
 40
0.0
 40
0.0
 40
0.0
 40
0.0
 40
1.0
 40
1.0
 40
1.0
 40
1.0
 10
394.518
 20
210.013
 30
0.0
 10
394.518
 20
210.841
 30
0.0
 10
395.189
 20
211.514
 30
0.0
 10
396.018
 20
211.514
 30
0.0
  0
SPLINE
  5
155
330
1F
100
AcDbEntity
  8
0
 62
     1
100
AcDbSpline
 70
     0
 71
     3
 72
     8
 73
     4
 74
     0
 42
0.000000001
 43
0.0000001
 40
0.0
 40
0.0
 40
0.0
 40
0.0
 40
1.0
 40
1.0
 40
1.0
 40
1.0
 10
396.018
 20
211.514
 30
0.0
 10
396.847
 20
211.514
 30
0.0
 10
397.517
 20
210.841
 30
0.0
 10
397.517
 20
210.013
 30
0.0
  0
SPLINE
  5
156
330
1F
100
AcDbEntity
  8
0
 62
     1
100
AcDbSpline
 70
     0
 71
     3
 72
     8
 73
     4
 74
     0
 42
0.000000001
 43
0.0000001
 40
0.0
 40
0.0
 40
0.0
 40
0.0
 40
1.0
 40
1.0
 40
1.0
 40
1.0
 10
397.517
 20
210.013
 30
0.0
 10
397.517
 20
209.185
 30
0.0
 10
396.847
 20
208.514
 30
0.0
 10
396.018
 20
208.514
 30
0.0
  0
SPLINE
  5
157
330
1F
100
AcDbEntity
  8
0
 62
     1
100
AcDbSpline
 70
     0
 71
     3
 72
     8
 73
     4
 74
     0
 42
0.000000001
 43
0.0000001
 40
0.0
 40
0.0
 40
0.0
 40
0.0
 40
1.0
 40
1.0
 40
1.0
 40
1.0
 10
396.018
 20
208.514
 30
0.0
 10
395.189
 20
208.514
 30
0.0
 10
394.518
 20
209.185
 30
0.0
 10
394.518
 20
210.013
 30
0.0
  0
LINE
  5
158
330
1F
100
AcDbEntity
  8
0
 62
     1
100
AcDbLine
 10
394.518
 20
210.013
 30
0.0
 11
394.518
 21
210.013
 31
0.0
  0
SPLINE
  5
159
330
1F
100
AcDbEntity
  8
0
 62
     1
100
AcDbSpline
 70
     0
 71
     3
 72
     8
 73
     4
 74
     0
 42
0.000000001
 43
0.0000001
 40
0.0
 40
0.0
 40
0.0
 40
0.0
 40
1.0
 40
1.0
 40
1.0
 40
1.0
 10
393.517
 20
216.213
 30
0.0
 10
393.517
 20
217.594
 30
0.0
 10
394.638
 20
218.713
 30
0.0
 10
396.018
 20
218.713
 30
0.0
  0
SPLINE
  5
15A
330
1F
100
AcDbEntity
  8
0
 62
     1
100
AcDbSpline
 70
     0
 71
     3
 72
     8
 73
     4
 74
     0
 42
0.000000001
 43
0.0000001
 40
0.0
 40
0.0
 40
0.0
 40
0.0
 40
1.0
 40
1.0
 40
1.0
 40
1.0
 10
396.018
 20
218.713
 30
0.0
 10
397.397
 20
218.713
 30
0.0
 10
398.519
 20
217.594
 30
0.0
 10
398.519
 20
216.213
 30
0.0
  0
SPLINE
  5
15B
330
1F
100
AcDbEntity
  8
0
 62
     1
100
AcDbSpline
 70
     0
 71
     3
 72
     8
 73
     4
 74
     0
 42
0.000000001
 43
0.0000001
 40
0.0
 40
0.0
 40
0.0
 40
0.0
 40
1.0
 40
1.0
 40
1.0
 40
1.0
 10
398.519
 20
216.213
 30
0.0
 10
398.519
 20
214.832
 30
0.0
 10
397.397
 20
213.713
 30
0.0
 10
396.018
 20
213.713
 30
0.0
  0
SPLINE
  5
15C
330
1F
100
AcDbEntity
  8
0
 62
     1
100
AcDbSpline
 70
     0
 71
     3
 72
     8
 73
     4
 74
     0
 42
0.000000001
 43
0.0000001
 40
0.0
 40
0.0
 40
0.0
 40
0.0
 40
1.0
 40
1.0
 40
1.0
 40
1.0
 10
396.018
 20
213.713
 30
0.0
 10
394.638
 20
213.713
 30
0.0
 10
393.517
 20
214.832
 30
0.0
 10
393.517
 20
216.213
 30
0.0
  0
LINE
  5
15D
330
1F
100
AcDbEntity
  8
0
 62
     1
100
AcDbLine
 10
393.517
 20
216.213
 30
0.0
 11
393.517
 21
216.213
 31
0.0
  0
SPLINE
  5
15E
330
1F
100
AcDbEntity
  8
0
 62
     1
100
AcDbSpline
 70
     0
 71
     3
 72
     8
 73
     4
 74
     0
 42
0.000000001
 43
0.0000001
 40
0.0
 40
0.0
 40
0.0
 40
0.0
 40
1.0
 40
1.0
 40
1.0
 40
1.0
 10
394.518
 20
216.213
 30
0.0
 10
394.518
 20
217.041
 30
0.0
 10
395.189
 20
217.714
 30
0.0
 10
396.018
 20
217.714
 30
0.0
  0
SPLINE
  5
15F
330
1F
100
AcDbEntity
  8
0
 62
     1
100
AcDbSpline
 70
     0
 71
     3
 72
     8
 73
     4
 74
     0
 42
0.000000001
 43
0.0000001
 40
0.0
 40
0.0
 40
0.0
 40
0.0
 40
1.0
 40
1.0
 40
1.0
 40
1.0
 10
396.018
 20
217.714
 30
0.0
 10
396.847
 20
217.714
 30
0.0
 10
397.517
 20
217.041
 30
0.0
 10
397.517
 20
216.213
 30
0.0
  0
SPLINE
  5
160
330
1F
100
AcDbEntity
  8
0
 62
     1
100
AcDbSpline
 70
     0
 71
     3
 72
     8
 73
     4
 74
     0
 42
0.000000001
 43
0.0000001
 40
0.0
 40
0.0
 40
0.0
 40
0.0
 40
1.0
 40
1.0
 40
1.0
 40
1.0
 10
397.517
 20
216.213
 30
0.0
 10
397.517
 20
215.385
 30
0.0
 10
396.847
 20
214.714
 30
0.0
 10
396.018
 20
214.714
 30
0.0
  0
SPLINE
  5
161
330
1F
100
AcDbEntity
  8
0
 62
     1
100
AcDbSpline
 70
     0
 71
     3
 72
     8
 73
     4
 74
     0
 42
0.000000001
 43
0.0000001
 40
0.0
 40
0.0
 40
0.0
 40
0.0
 40
1.0
 40
1.0
 40
1.0
 40
1.0
 10
396.018
 20
214.714
 30
0.0
 10
395.189
 20
214.714
 30
0.0
 10
394.518
 20
215.385
 30
0.0
 10
394.518
 20
216.213
 30
0.0
  0
LINE
  5
162
330
1F
100
AcDbEntity
  8
0
 62
     1
100
AcDbLine
 10
394.518
 20
216.213
 30
0.0
 11
394.518
 21
216.213
 31
0.0
  0
SPLINE
  5
163
330
1F
100
AcDbEntity
  8
0
 62
     1
100
AcDbSpline
 70
     0
 71
     3
 72
     8
 73
     4
 74
     0
 42
0.000000001
 43
0.0000001
 40
0.0
 40
0.0
 40
0.0
 40
0.0
 40
1.0
 40
1.0
 40
1.0
 40
1.0
 10
399.517
 20
210.013
 30
0.0
 10
399.517
 20
211.394
 30
0.0
 10
400.636
 20
212.513
 30
0.0
 10
402.018
 20
212.513
 30
0.0
  0
SPLINE
  5
164
330
1F
100
AcDbEntity
  8
0
 62
     1
100
AcDbSpline
 70
     0
 71
     3
 72
     8
 73
     4
 74
     0
 42
0.000000001
 43
0.0000001
 40
0.0
 40
0.0
 40
0.0
 40
0.0
 40
1.0
 40
1.0
 40
1.0
 40
1.0
 10
402.018
 20
212.513
 30
0.0
 10
403.398
 20
212.513
 30
0.0
 10
404.516
 20
211.394
 30
0.0
 10
404.516
 20
210.013
 30
0.0
  0
SPLINE
  5
165
330
1F
100
AcDbEntity
  8
0
 62
     1
100
AcDbSpline
 70
     0
 71
     3
 72
     8
 73
     4
 74
     0
 42
0.000000001
 43
0.0000001
 40
0.0
 40
0.0
 40
0.0
 40
0.0
 40
1.0
 40
1.0
 40
1.0
 40
1.0
 10
404.516
 20
210.013
 30
0.0
 10
404.516
 20
208.632
 30
0.0
 10
403.398
 20
207.513
 30
0.0
 10
402.018
 20
207.513
 30
0.0
  0
SPLINE
  5
166
330
1F
100
AcDbEntity
  8
0
 62
     1
100
AcDbSpline
 70
     0
 71
     3
 72
     8
 73
     4
 74
     0
 42
0.000000001
 43
0.0000001
 40
0.0
 40
0.0
 40
0.0
 40
0.0
 40
1.0
 40
1.0
 40
1.0
 40
1.0
 10
402.018
 20
207.513
 30
0.0
 10
400.636
 20
207.513
 30
0.0
 10
399.517
 20
208.632
 30
0.0
 10
399.517
 20
210.013
 30
0.0
  0
LINE
  5
167
330
1F
100
AcDbEntity
  8
0
 62
     1
100
AcDbLine
 10
399.517
 20
210.013
 30
0.0
 11
399.517
 21
210.013
 31
0.0
  0
SPLINE
  5
168
330
1F
100
AcDbEntity
  8
0
 62
     1
100
AcDbSpline
 70
     0
 71
     3
 72
     8
 73
     4
 74
     0
 42
0.000000001
 43
0.0000001
 40
0.0
 40
0.0
 40
0.0
 40
0.0
 40
1.0
 40
1.0
 40
1.0
 40
1.0
 10
400.519
 20
210.013
 30
0.0
 10
400.519
 20
210.841
 30
0.0
 10
401.189
 20
211.514
 30
0.0
 10
402.018
 20
211.514
 30
0.0
  0
SPLINE
  5
169
330
1F
100
AcDbEntity
  8
0
 62
     1
100
AcDbSpline
 70
     0
 71
     3
 72
     8
 73
     4
 74
     0
 42
0.000000001
 43
0.0000001
 40
0.0
 40
0.0
 40
0.0
 40
0.0
 40
1.0
 40
1.0
 40
1.0
 40
1.0
 10
402.018
 20
211.514
 30
0.0
 10
402.848
 20
211.514
 30
0.0
 10
403.518
 20
210.841
 30
0.0
 10
403.518
 20
210.013
 30
0.0
  0
SPLINE
  5
16A
330
1F
100
AcDbEntity
  8
0
 62
     1
100
AcDbSpline
 70
     0
 71
     3
 72
     8
 73
     4
 74
     0
 42
0.000000001
 43
0.0000001
 40
0.0
 40
0.0
 40
0.0
 40
0.0
 40
1.0
 40
1.0
 40
1.0
 40
1.0
 10
403.518
 20
210.013
 30
0.0
 10
403.518
 20
209.185
 30
0.0
 10
402.848
 20
208.514
 30
0.0
 10
402.018
 20
208.514
 30
0.0
  0
SPLINE
  5
16B
330
1F
100
AcDbEntity
  8
0
 62
     1
100
AcDbSpline
 70
     0
 71
     3
 72
     8
 73
     4
 74
     0
 42
0.000000001
 43
0.0000001
 40
0.0
 40
0.0
 40
0.0
 40
0.0
 40
1.0
 40
1.0
 40
1.0
 40
1.0
 10
402.018
 20
208.514
 30
0.0
 10
401.189
 20
208.514
 30
0.0
 10
400.519
 20
209.185
 30
0.0
 10
400.519
 20
210.013
 30
0.0
  0
LINE
  5
16C
330
1F
100
AcDbEntity
  8
0
 62
     1
100
AcDbLine
 10
400.519
 20
210.013
 30
0.0
 11
400.519
 21
210.013
 31
0.0
  0
SPLINE
  5
16D
330
1F
100
AcDbEntity
  8
0
 62
     1
100
AcDbSpline
 70
     0
 71
     3
 72
     8
 73
     4
 74
     0
 42
0.000000001
 43
0.0000001
 40
0.0
 40
0.0
 40
0.0
 40
0.0
 40
1.0
 40
1.0
 40
1.0
 40
1.0
 10
399.517
 20
216.213
 30
0.0
 10
399.517
 20
217.594
 30
0.0
 10
400.636
 20
218.713
 30
0.0
 10
402.018
 20
218.713
 30
0.0
  0
SPLINE
  5
16E
330
1F
100
AcDbEntity
  8
0
 62
     1
100
AcDbSpline
 70
     0
 71
     3
 72
     8
 73
     4
 74
     0
 42
0.000000001
 43
0.0000001
 40
0.0
 40
0.0
 40
0.0
 40
0.0
 40
1.0
 40
1.0
 40
1.0
 40
1.0
 10
402.018
 20
218.713
 30
0.0
 10
403.398
 20
218.713
 30
0.0
 10
404.516
 20
217.594
 30
0.0
 10
404.516
 20
216.213
 30
0.0
  0
SPLINE
  5
16F
330
1F
100
AcDbEntity
  8
0
 62
     1
100
AcDbSpline
 70
     0
 71
     3
 72
     8
 73
     4
 74
     0
 42
0.000000001
 43
0.0000001
 40
0.0
 40
0.0
 40
0.0
 40
0.0
 40
1.0
 40
1.0
 40
1.0
 40
1.0
 10
404.516
 20
216.213
 30
0.0
 10
404.516
 20
214.832
 30
0.0
 10
403.398
 20
213.713
 30
0.0
 10
402.018
 20
213.713
 30
0.0
  0
SPLINE
  5
170
330
1F
100
AcDbEntity
  8
0
 62
     1
100
AcDbSpline
 70
     0
 71
     3
 72
     8
 73
     4
 74
     0
 42
0.000000001
 43
0.0000001
 40
0.0
 40
0.0
 40
0.0
 40
0.0
 40
1.0
 40
1.0
 40
1.0
 40
1.0
 10
402.018
 20
213.713
 30
0.0
 10
400.636
 20
213.713
 30
0.0
 10
399.517
 20
214.832
 30
0.0
 10
399.517
 20
216.213
 30
0.0
  0
LINE
  5
171
330
1F
100
AcDbEntity
  8
0
 62
     1
100
AcDbLine
 10
399.517
 20
216.213
 30
0.0
 11
399.517
 21
216.213
 31
0.0
  0
SPLINE
  5
172
330
1F
100
AcDbEntity
  8
0
 62
     1
100
AcDbSpline
 70
     0
 71
     3
 72
     8
 73
     4
 74
     0
 42
0.000000001
 43
0.0000001
 40
0.0
 40
0.0
 40
0.0
 40
0.0
 40
1.0
 40
1.0
 40
1.0
 40
1.0
 10
400.519
 20
216.213
 30
0.0
 10
400.519
 20
217.041
 30
0.0
 10
401.189
 20
217.714
 30
0.0
 10
402.018
 20
217.714
 30
0.0
  0
SPLINE
  5
173
330
1F
100
AcDbEntity
  8
0
 62
     1
100
AcDbSpline
 70
     0
 71
     3
 72
     8
 73
     4
 74
     0
 42
0.000000001
 43
0.0000001
 40
0.0
 40
0.0
 40
0.0
 40
0.0
 40
1.0
 40
1.0
 40
1.0
 40
1.0
 10
402.018
 20
217.714
 30
0.0
 10
402.848
 20
217.714
 30
0.0
 10
403.518
 20
217.041
 30
0.0
 10
403.518
 20
216.213
 30
0.0
  0
SPLINE
  5
174
330
1F
100
AcDbEntity
  8
0
 62
     1
100
AcDbSpline
 70
     0
 71
     3
 72
     8
 73
     4
 74
     0
 42
0.000000001
 43
0.0000001
 40
0.0
 40
0.0
 40
0.0
 40
0.0
 40
1.0
 40
1.0
 40
1.0
 40
1.0
 10
403.518
 20
216.213
 30
0.0
 10
403.518
 20
215.385
 30
0.0
 10
402.848
 20
214.714
 30
0.0
 10
402.018
 20
214.714
 30
0.0
  0
SPLINE
  5
175
330
1F
100
AcDbEntity
  8
0
 62
     1
100
AcDbSpline
 70
     0
 71
     3
 72
     8
 73
     4
 74
     0
 42
0.000000001
 43
0.0000001
 40
0.0
 40
0.0
 40
0.0
 40
0.0
 40
1.0
 40
1.0
 40
1.0
 40
1.0
 10
402.018
 20
214.714
 30
0.0
 10
401.189
 20
214.714
 30
0.0
 10
400.519
 20
215.385
 30
0.0
 10
400.519
 20
216.213
 30
0.0
  0
LINE
  5
176
330
1F
100
AcDbEntity
  8
0
 62
     1
100
AcDbLine
 10
400.519
 20
216.213
 30
0.0
 11
400.519
 21
216.213
 31
0.0
  0
SPLINE
  5
177
330
1F
100
AcDbEntity
  8
0
 62
     1
100
AcDbSpline
 70
     0
 71
     3
 72
     8
 73
     4
 74
     0
 42
0.000000001
 43
0.0000001
 40
0.0
 40
0.0
 40
0.0
 40
0.0
 40
1.0
 40
1.0
 40
1.0
 40
1.0
 10
393.517
 20
222.614
 30
0.0
 10
393.517
 20
223.993
 30
0.0
 10
394.638
 20
225.113
 30
0.0
 10
396.018
 20
225.113
 30
0.0
  0
SPLINE
  5
178
330
1F
100
AcDbEntity
  8
0
 62
     1
100
AcDbSpline
 70
     0
 71
     3
 72
     8
 73
     4
 74
     0
 42
0.000000001
 43
0.0000001
 40
0.0
 40
0.0
 40
0.0
 40
0.0
 40
1.0
 40
1.0
 40
1.0
 40
1.0
 10
396.018
 20
225.113
 30
0.0
 10
397.397
 20
225.113
 30
0.0
 10
398.519
 20
223.993
 30
0.0
 10
398.519
 20
222.614
 30
0.0
  0
SPLINE
  5
179
330
1F
100
AcDbEntity
  8
0
 62
     1
100
AcDbSpline
 70
     0
 71
     3
 72
     8
 73
     4
 74
     0
 42
0.000000001
 43
0.0000001
 40
0.0
 40
0.0
 40
0.0
 40
0.0
 40
1.0
 40
1.0
 40
1.0
 40
1.0
 10
398.519
 20
222.614
 30
0.0
 10
398.519
 20
221.233
 30
0.0
 10
397.397
 20
220.113
 30
0.0
 10
396.018
 20
220.113
 30
0.0
  0
SPLINE
  5
17A
330
1F
100
AcDbEntity
  8
0
 62
     1
100
AcDbSpline
 70
     0
 71
     3
 72
     8
 73
     4
 74
     0
 42
0.000000001
 43
0.0000001
 40
0.0
 40
0.0
 40
0.0
 40
0.0
 40
1.0
 40
1.0
 40
1.0
 40
1.0
 10
396.018
 20
220.113
 30
0.0
 10
394.638
 20
220.113
 30
0.0
 10
393.517
 20
221.233
 30
0.0
 10
393.517
 20
222.614
 30
0.0
  0
LINE
  5
17B
330
1F
100
AcDbEntity
  8
0
 62
     1
100
AcDbLine
 10
393.517
 20
222.614
 30
0.0
 11
393.517
 21
222.614
 31
0.0
  0
SPLINE
  5
17C
330
1F
100
AcDbEntity
  8
0
 62
     1
100
AcDbSpline
 70
     0
 71
     3
 72
     8
 73
     4
 74
     0
 42
0.000000001
 43
0.0000001
 40
0.0
 40
0.0
 40
0.0
 40
0.0
 40
1.0
 40
1.0
 40
1.0
 40
1.0
 10
394.518
 20
222.614
 30
0.0
 10
394.518
 20
223.442
 30
0.0
 10
395.189
 20
224.113
 30
0.0
 10
396.018
 20
224.113
 30
0.0
  0
SPLINE
  5
17D
330
1F
100
AcDbEntity
  8
0
 62
     1
100
AcDbSpline
 70
     0
 71
     3
 72
     8
 73
     4
 74
     0
 42
0.000000001
 43
0.0000001
 40
0.0
 40
0.0
 40
0.0
 40
0.0
 40
1.0
 40
1.0
 40
1.0
 40
1.0
 10
396.018
 20
224.113
 30
0.0
 10
396.847
 20
224.113
 30
0.0
 10
397.517
 20
223.442
 30
0.0
 10
397.517
 20
222.612
 30
0.0
  0
SPLINE
  5
17E
330
1F
100
AcDbEntity
  8
0
 62
     1
100
AcDbSpline
 70
     0
 71
     3
 72
     8
 73
     4
 74
     0
 42
0.000000001
 43
0.0000001
 40
0.0
 40
0.0
 40
0.0
 40
0.0
 40
1.0
 40
1.0
 40
1.0
 40
1.0
 10
397.517
 20
222.612
 30
0.0
 10
397.517
 20
221.784
 30
0.0
 10
396.847
 20
221.113
 30
0.0
 10
396.018
 20
221.113
 30
0.0
  0
SPLINE
  5
17F
330
1F
100
AcDbEntity
  8
0
 62
     1
100
AcDbSpline
 70
     0
 71
     3
 72
     8
 73
     4
 74
     0
 42
0.000000001
 43
0.0000001
 40
0.0
 40
0.0
 40
0.0
 40
0.0
 40
1.0
 40
1.0
 40
1.0
 40
1.0
 10
396.018
 20
221.113
 30
0.0
 10
395.189
 20
221.113
 30
0.0
 10
394.518
 20
221.784
 30
0.0
 10
394.518
 20
222.614
 30
0.0
  0
LINE
  5
180
330
1F
100
AcDbEntity
  8
0
 62
     1
100
AcDbLine
 10
394.518
 20
222.614
 30
0.0
 11
394.518
 21
222.614
 31
0.0
  0
SPLINE
  5
181
330
1F
100
AcDbEntity
  8
0
 62
     1
100
AcDbSpline
 70
     0
 71
     3
 72
     8
 73
     4
 74
     0
 42
0.000000001
 43
0.0000001
 40
0.0
 40
0.0
 40
0.0
 40
0.0
 40
1.0
 40
1.0
 40
1.0
 40
1.0
 10
393.517
 20
228.813
 30
0.0
 10
393.517
 20
230.195
 30
0.0
 10
394.638
 20
231.313
 30
0.0
 10
396.018
 20
231.313
 30
0.0
  0
SPLINE
  5
182
330
1F
100
AcDbEntity
  8
0
 62
     1
100
AcDbSpline
 70
     0
 71
     3
 72
     8
 73
     4
 74
     0
 42
0.000000001
 43
0.0000001
 40
0.0
 40
0.0
 40
0.0
 40
0.0
 40
1.0
 40
1.0
 40
1.0
 40
1.0
 10
396.018
 20
231.313
 30
0.0
 10
397.397
 20
231.313
 30
0.0
 10
398.519
 20
230.195
 30
0.0
 10
398.519
 20
228.813
 30
0.0
  0
SPLINE
  5
183
330
1F
100
AcDbEntity
  8
0
 62
     1
100
AcDbSpline
 70
     0
 71
     3
 72
     8
 73
     4
 74
     0
 42
0.000000001
 43
0.0000001
 40
0.0
 40
0.0
 40
0.0
 40
0.0
 40
1.0
 40
1.0
 40
1.0
 40
1.0
 10
398.519
 20
228.813
 30
0.0
 10
398.519
 20
227.433
 30
0.0
 10
397.397
 20
226.313
 30
0.0
 10
396.018
 20
226.313
 30
0.0
  0
SPLINE
  5
184
330
1F
100
AcDbEntity
  8
0
 62
     1
100
AcDbSpline
 70
     0
 71
     3
 72
     8
 73
     4
 74
     0
 42
0.000000001
 43
0.0000001
 40
0.0
 40
0.0
 40
0.0
 40
0.0
 40
1.0
 40
1.0
 40
1.0
 40
1.0
 10
396.018
 20
226.313
 30
0.0
 10
394.638
 20
226.313
 30
0.0
 10
393.517
 20
227.433
 30
0.0
 10
393.517
 20
228.813
 30
0.0
  0
LINE
  5
185
330
1F
100
AcDbEntity
  8
0
 62
     1
100
AcDbLine
 10
393.517
 20
228.813
 30
0.0
 11
393.517
 21
228.813
 31
0.0
  0
SPLINE
  5
186
330
1F
100
AcDbEntity
  8
0
 62
     1
100
AcDbSpline
 70
     0
 71
     3
 72
     8
 73
     4
 74
     0
 42
0.000000001
 43
0.0000001
 40
0.0
 40
0.0
 40
0.0
 40
0.0
 40
1.0
 40
1.0
 40
1.0
 40
1.0
 10
394.518
 20
228.813
 30
0.0
 10
394.518
 20
229.642
 30
0.0
 10
395.189
 20
230.313
 30
0.0
 10
396.018
 20
230.313
 30
0.0
  0
SPLINE
  5
187
330
1F
100
AcDbEntity
  8
0
 62
     1
100
AcDbSpline
 70
     0
 71
     3
 72
     8
 73
     4
 74
     0
 42
0.000000001
 43
0.0000001
 40
0.0
 40
0.0
 40
0.0
 40
0.0
 40
1.0
 40
1.0
 40
1.0
 40
1.0
 10
396.018
 20
230.313
 30
0.0
 10
396.847
 20
230.313
 30
0.0
 10
397.517
 20
229.642
 30
0.0
 10
397.517
 20
228.813
 30
0.0
  0
SPLINE
  5
188
330
1F
100
AcDbEntity
  8
0
 62
     1
100
AcDbSpline
 70
     0
 71
     3
 72
     8
 73
     4
 74
     0
 42
0.000000001
 43
0.0000001
 40
0.0
 40
0.0
 40
0.0
 40
0.0
 40
1.0
 40
1.0
 40
1.0
 40
1.0
 10
397.517
 20
228.813
 30
0.0
 10
397.517
 20
227.984
 30
0.0
 10
396.847
 20
227.313
 30
0.0
 10
396.018
 20
227.313
 30
0.0
  0
SPLINE
  5
189
330
1F
100
AcDbEntity
  8
0
 62
     1
100
AcDbSpline
 70
     0
 71
     3
 72
     8
 73
     4
 74
     0
 42
0.000000001
 43
0.0000001
 40
0.0
 40
0.0
 40
0.0
 40
0.0
 40
1.0
 40
1.0
 40
1.0
 40
1.0
 10
396.018
 20
227.313
 30
0.0
 10
395.189
 20
227.313
 30
0.0
 10
394.518
 20
227.984
 30
0.0
 10
394.518
 20
228.813
 30
0.0
  0
LINE
  5
18A
330
1F
100
AcDbEntity
  8
0
 62
     1
100
AcDbLine
 10
394.518
 20
228.813
 30
0.0
 11
394.518
 21
228.813
 31
0.0
  0
SPLINE
  5
18B
330
1F
100
AcDbEntity
  8
0
 62
     1
100
AcDbSpline
 70
     0
 71
     3
 72
     8
 73
     4
 74
     0
 42
0.000000001
 43
0.0000001
 40
0.0
 40
0.0
 40
0.0
 40
0.0
 40
1.0
 40
1.0
 40
1.0
 40
1.0
 10
399.517
 20
222.614
 30
0.0
 10
399.517
 20
223.993
 30
0.0
 10
400.636
 20
225.113
 30
0.0
 10
402.018
 20
225.113
 30
0.0
  0
SPLINE
  5
18C
330
1F
100
AcDbEntity
  8
0
 62
     1
100
AcDbSpline
 70
     0
 71
     3
 72
     8
 73
     4
 74
     0
 42
0.000000001
 43
0.0000001
 40
0.0
 40
0.0
 40
0.0
 40
0.0
 40
1.0
 40
1.0
 40
1.0
 40
1.0
 10
402.018
 20
225.113
 30
0.0
 10
403.398
 20
225.113
 30
0.0
 10
404.516
 20
223.993
 30
0.0
 10
404.516
 20
222.614
 30
0.0
  0
SPLINE
  5
18D
330
1F
100
AcDbEntity
  8
0
 62
     1
100
AcDbSpline
 70
     0
 71
     3
 72
     8
 73
     4
 74
     0
 42
0.000000001
 43
0.0000001
 40
0.0
 40
0.0
 40
0.0
 40
0.0
 40
1.0
 40
1.0
 40
1.0
 40
1.0
 10
404.516
 20
222.614
 30
0.0
 10
404.516
 20
221.233
 30
0.0
 10
403.398
 20
220.113
 30
0.0
 10
402.018
 20
220.113
 30
0.0
  0
SPLINE
  5
18E
330
1F
100
AcDbEntity
  8
0
 62
     1
100
AcDbSpline
 70
     0
 71
     3
 72
     8
 73
     4
 74
     0
 42
0.000000001
 43
0.0000001
 40
0.0
 40
0.0
 40
0.0
 40
0.0
 40
1.0
 40
1.0
 40
1.0
 40
1.0
 10
402.018
 20
220.113
 30
0.0
 10
400.636
 20
220.113
 30
0.0
 10
399.517
 20
221.233
 30
0.0
 10
399.517
 20
222.614
 30
0.0
  0
LINE
  5
18F
330
1F
100
AcDbEntity
  8
0
 62
     1
100
AcDbLine
 10
399.517
 20
222.614
 30
0.0
 11
399.517
 21
222.614
 31
0.0
  0
SPLINE
  5
190
330
1F
100
AcDbEntity
  8
0
 62
     1
100
AcDbSpline
 70
     0
 71
     3
 72
     8
 73
     4
 74
     0
 42
0.000000001
 43
0.0000001
 40
0.0
 40
0.0
 40
0.0
 40
0.0
 40
1.0
 40
1.0
 40
1.0
 40
1.0
 10
400.519
 20
222.614
 30
0.0
 10
400.519
 20
223.442
 30
0.0
 10
401.189
 20
224.113
 30
0.0
 10
402.018
 20
224.113
 30
0.0
  0
SPLINE
  5
191
330
1F
100
AcDbEntity
  8
0
 62
     1
100
AcDbSpline
 70
     0
 71
     3
 72
     8
 73
     4
 74
     0
 42
0.000000001
 43
0.0000001
 40
0.0
 40
0.0
 40
0.0
 40
0.0
 40
1.0
 40
1.0
 40
1.0
 40
1.0
 10
402.018
 20
224.113
 30
0.0
 10
402.848
 20
224.113
 30
0.0
 10
403.518
 20
223.442
 30
0.0
 10
403.518
 20
222.612
 30
0.0
  0
SPLINE
  5
192
330
1F
100
AcDbEntity
  8
0
 62
     1
100
AcDbSpline
 70
     0
 71
     3
 72
     8
 73
     4
 74
     0
 42
0.000000001
 43
0.0000001
 40
0.0
 40
0.0
 40
0.0
 40
0.0
 40
1.0
 40
1.0
 40
1.0
 40
1.0
 10
403.518
 20
222.612
 30
0.0
 10
403.518
 20
221.784
 30
0.0
 10
402.848
 20
221.113
 30
0.0
 10
402.018
 20
221.113
 30
0.0
  0
SPLINE
  5
193
330
1F
100
AcDbEntity
  8
0
 62
     1
100
AcDbSpline
 70
     0
 71
     3
 72
     8
 73
     4
 74
     0
 42
0.000000001
 43
0.0000001
 40
0.0
 40
0.0
 40
0.0
 40
0.0
 40
1.0
 40
1.0
 40
1.0
 40
1.0
 10
402.018
 20
221.113
 30
0.0
 10
401.189
 20
221.113
 30
0.0
 10
400.519
 20
221.784
 30
0.0
 10
400.519
 20
222.614
 30
0.0
  0
LINE
  5
194
330
1F
100
AcDbEntity
  8
0
 62
     1
100
AcDbLine
 10
400.519
 20
222.614
 30
0.0
 11
400.519
 21
222.614
 31
0.0
  0
SPLINE
  5
195
330
1F
100
AcDbEntity
  8
0
 62
     1
100
AcDbSpline
 70
     0
 71
     3
 72
     8
 73
     4
 74
     0
 42
0.000000001
 43
0.0000001
 40
0.0
 40
0.0
 40
0.0
 40
0.0
 40
1.0
 40
1.0
 40
1.0
 40
1.0
 10
399.517
 20
228.813
 30
0.0
 10
399.517
 20
230.195
 30
0.0
 10
400.636
 20
231.313
 30
0.0
 10
402.018
 20
231.313
 30
0.0
  0
SPLINE
  5
196
330
1F
100
AcDbEntity
  8
0
 62
     1
100
AcDbSpline
 70
     0
 71
     3
 72
     8
 73
     4
 74
     0
 42
0.000000001
 43
0.0000001
 40
0.0
 40
0.0
 40
0.0
 40
0.0
 40
1.0
 40
1.0
 40
1.0
 40
1.0
 10
402.018
 20
231.313
 30
0.0
 10
403.398
 20
231.313
 30
0.0
 10
404.516
 20
230.195
 30
0.0
 10
404.516
 20
228.813
 30
0.0
  0
SPLINE
  5
197
330
1F
100
AcDbEntity
  8
0
 62
     1
100
AcDbSpline
 70
     0
 71
     3
 72
     8
 73
     4
 74
     0
 42
0.000000001
 43
0.0000001
 40
0.0
 40
0.0
 40
0.0
 40
0.0
 40
1.0
 40
1.0
 40
1.0
 40
1.0
 10
404.516
 20
228.813
 30
0.0
 10
404.516
 20
227.433
 30
0.0
 10
403.398
 20
226.313
 30
0.0
 10
402.018
 20
226.313
 30
0.0
  0
SPLINE
  5
198
330
1F
100
AcDbEntity
  8
0
 62
     1
100
AcDbSpline
 70
     0
 71
     3
 72
     8
 73
     4
 74
     0
 42
0.000000001
 43
0.0000001
 40
0.0
 40
0.0
 40
0.0
 40
0.0
 40
1.0
 40
1.0
 40
1.0
 40
1.0
 10
402.018
 20
226.313
 30
0.0
 10
400.636
 20
226.313
 30
0.0
 10
399.517
 20
227.433
 30
0.0
 10
399.517
 20
228.813
 30
0.0
  0
LINE
  5
199
330
1F
100
AcDbEntity
  8
0
 62
     1
100
AcDbLine
 10
399.517
 20
228.813
 30
0.0
 11
399.517
 21
228.813
 31
0.0
  0
SPLINE
  5
19A
330
1F
100
AcDbEntity
  8
0
 62
     1
100
AcDbSpline
 70
     0
 71
     3
 72
     8
 73
     4
 74
     0
 42
0.000000001
 43
0.0000001
 40
0.0
 40
0.0
 40
0.0
 40
0.0
 40
1.0
 40
1.0
 40
1.0
 40
1.0
 10
400.519
 20
228.813
 30
0.0
 10
400.519
 20
229.642
 30
0.0
 10
401.189
 20
230.313
 30
0.0
 10
402.018
 20
230.313
 30
0.0
  0
SPLINE
  5
19B
330
1F
100
AcDbEntity
  8
0
 62
     1
100
AcDbSpline
 70
     0
 71
     3
 72
     8
 73
     4
 74
     0
 42
0.000000001
 43
0.0000001
 40
0.0
 40
0.0
 40
0.0
 40
0.0
 40
1.0
 40
1.0
 40
1.0
 40
1.0
 10
402.018
 20
230.313
 30
0.0
 10
402.848
 20
230.313
 30
0.0
 10
403.518
 20
229.642
 30
0.0
 10
403.518
 20
228.813
 30
0.0
  0
SPLINE
  5
19C
330
1F
100
AcDbEntity
  8
0
 62
     1
100
AcDbSpline
 70
     0
 71
     3
 72
     8
 73
     4
 74
     0
 42
0.000000001
 43
0.0000001
 40
0.0
 40
0.0
 40
0.0
 40
0.0
 40
1.0
 40
1.0
 40
1.0
 40
1.0
 10
403.518
 20
228.813
 30
0.0
 10
403.518
 20
227.984
 30
0.0
 10
402.848
 20
227.313
 30
0.0
 10
402.018
 20
227.313
 30
0.0
  0
SPLINE
  5
19D
330
1F
100
AcDbEntity
  8
0
 62
     1
100
AcDbSpline
 70
     0
 71
     3
 72
     8
 73
     4
 74
     0
 42
0.000000001
 43
0.0000001
 40
0.0
 40
0.0
 40
0.0
 40
0.0
 40
1.0
 40
1.0
 40
1.0
 40
1.0
 10
402.018
 20
227.313
 30
0.0
 10
401.189
 20
227.313
 30
0.0
 10
400.519
 20
227.984
 30
0.0
 10
400.519
 20
228.813
 30
0.0
  0
LINE
  5
19E
330
1F
100
AcDbEntity
  8
0
 62
     1
100
AcDbLine
 10
400.519
 20
228.813
 30
0.0
 11
400.519
 21
228.813
 31
0.0
  0
LINE
  5
19F
330
1F
100
AcDbEntity
  8
0
 62
     1
100
AcDbLine
 10
261.036
 20
318.7
 30
0.0
 11
261.036
 21
300.7
 31
0.0
  0
LINE
  5
1A0
330
1F
100
AcDbEntity
  8
0
 62
     1
100
AcDbLine
 10
261.036
 20
300.7
 30
0.0
 11
264.036
 21
300.7
 31
0.0
  0
LINE
  5
1A1
330
1F
100
AcDbEntity
  8
0
 62
     1
100
AcDbLine
 10
264.036
 20
300.7
 30
0.0
 11
264.036
 21
288.7
 31
0.0
  0
LINE
  5
1A2
330
1F
100
AcDbEntity
  8
0
 62
     1
100
AcDbLine
 10
264.036
 20
288.7
 30
0.0
 11
261.036
 21
288.7
 31
0.0
  0
LINE
  5
1A3
330
1F
100
AcDbEntity
  8
0
 62
     1
100
AcDbLine
 10
261.036
 20
288.7
 30
0.0
 11
261.036
 21
276.701
 31
0.0
  0
LINE
  5
1A4
330
1F
100
AcDbEntity
  8
0
 62
     1
100
AcDbLine
 10
261.036
 20
276.701
 30
0.0
 11
264.036
 21
276.701
 31
0.0
  0
LINE
  5
1A5
330
1F
100
AcDbEntity
  8
0
 62
     1
100
AcDbLine
 10
264.036
 20
276.701
 30
0.0
 11
264.036
 21
264.7
 31
0.0
  0
LINE
  5
1A6
330
1F
100
AcDbEntity
  8
0
 62
     1
100
AcDbLine
 10
264.036
 20
264.7
 30
0.0
 11
261.036
 21
264.7
 31
0.0
  0
LINE
  5
1A7
330
1F
100
AcDbEntity
  8
0
 62
     1
100
AcDbLine
 10
261.036
 20
264.7
 30
0.0
 11
261.036
 21
252.699
 31
0.0
  0
LINE
  5
1A8
330
1F
100
AcDbEntity
  8
0
 62
     1
100
AcDbLine
 10
261.036
 20
252.699
 30
0.0
 11
264.036
 21
252.699
 31
0.0
  0
LINE
  5
1A9
330
1F
100
AcDbEntity
  8
0
 62
     1
100
AcDbLine
 10
264.036
 20
252.699
 30
0.0
 11
264.036
 21
240.699
 31
0.0
  0
LINE
  5
1AA
330
1F
100
AcDbEntity
  8
0
 62
     1
100
AcDbLine
 10
264.036
 20
240.699
 30
0.0
 11
261.036
 21
240.699
 31
0.0
  0
LINE
  5
1AB
330
1F
100
AcDbEntity
  8
0
 62
     1
100
AcDbLine
 10
261.036
 20
240.699
 30
0.0
 11
261.036
 21
228.699
 31
0.0
  0
LINE
  5
1AC
330
1F
100
AcDbEntity
  8
0
 62
     1
100
AcDbLine
 10
261.036
 20
228.699
 30
0.0
 11
264.036
 21
228.699
 31
0.0
  0
LINE
  5
1AD
330
1F
100
AcDbEntity
  8
0
 62
     1
100
AcDbLine
 10
264.036
 20
228.699
 30
0.0
 11
264.036
 21
216.699
 31
0.0
  0
LINE
  5
1AE
330
1F
100
AcDbEntity
  8
0
 62
     1
100
AcDbLine
 10
264.036
 20
216.699
 30
0.0
 11
261.036
 21
216.699
 31
0.0
  0
LINE
  5
1AF
330
1F
100
AcDbEntity
  8
0
 62
     1
100
AcDbLine
 10
261.036
 20
216.699
 30
0.0
 11
261.036
 21
204.699
 31
0.0
  0
LINE
  5
1B0
330
1F
100
AcDbEntity
  8
0
 62
     1
100
AcDbLine
 10
261.036
 20
204.699
 30
0.0
 11
261.036
 21
198.699
 31
0.0
  0
LINE
  5
1B1
330
1F
100
AcDbEntity
  8
0
 62
     1
100
AcDbLine
 10
261.036
 20
198.699
 30
0.0
 11
281.037
 21
198.699
 31
0.0
  0
LINE
  5
1B2
330
1F
100
AcDbEntity
  8
0
 62
     1
100
AcDbLine
 10
281.037
 20
198.699
 30
0.0
 11
281.037
 21
201.699
 31
0.0
  0
LINE
  5
1B3
330
1F
100
AcDbEntity
  8
0
 62
     1
100
AcDbLine
 10
281.037
 20
201.699
 30
0.0
 11
293.037
 21
201.699
 31
0.0
  0
LINE
  5
1B4
330
1F
100
AcDbEntity
  8
0
 62
     1
100
AcDbLine
 10
293.037
 20
201.699
 30
0.0
 11
293.037
 21
198.699
 31
0.0
  0
LINE
  5
1B5
330
1F
100
AcDbEntity
  8
0
 62
     1
100
AcDbLine
 10
293.037
 20
198.699
 30
0.0
 11
305.037
 21
198.699
 31
0.0
  0
LINE
  5
1B6
330
1F
100
AcDbEntity
  8
0
 62
     1
100
AcDbLine
 10
305.037
 20
198.699
 30
0.0
 11
305.037
 21
201.699
 31
0.0
  0
LINE
  5
1B7
330
1F
100
AcDbEntity
  8
0
 62
     1
100
AcDbLine
 10
305.037
 20
201.699
 30
0.0
 11
317.037
 21
201.699
 31
0.0
  0
LINE
  5
1B8
330
1F
100
AcDbEntity
  8
0
 62
     1
100
AcDbLine
 10
317.037
 20
201.699
 30
0.0
 11
317.037
 21
198.699
 31
0.0
  0
LINE
  5
1B9
330
1F
100
AcDbEntity
  8
0
 62
     1
100
AcDbLine
 10
317.037
 20
198.699
 30
0.0
 11
329.037
 21
198.699
 31
0.0
  0
LINE
  5
1BA
330
1F
100
AcDbEntity
  8
0
 62
     1
100
AcDbLine
 10
329.037
 20
198.699
 30
0.0
 11
329.037
 21
201.699
 31
0.0
  0
LINE
  5
1BB
330
1F
100
AcDbEntity
  8
0
 62
     1
100
AcDbLine
 10
329.037
 20
201.699
 30
0.0
 11
341.037
 21
201.699
 31
0.0
  0
LINE
  5
1BC
330
1F
100
AcDbEntity
  8
0
 62
     1
100
AcDbLine
 10
341.037
 20
201.699
 30
0.0
 11
341.037
 21
198.699
 31
0.0
  0
LINE
  5
1BD
330
1F
100
AcDbEntity
  8
0
 62
     1
100
AcDbLine
 10
341.037
 20
198.699
 30
0.0
 11
353.035
 21
198.699
 31
0.0
  0
LINE
  5
1BE
330
1F
100
AcDbEntity
  8
0
 62
     1
100
AcDbLine
 10
353.035
 20
198.699
 30
0.0
 11
361.036
 21
198.699
 31
0.0
  0
LINE
  5
1BF
330
1F
100
AcDbEntity
  8
0
 62
     1
100
AcDbLine
 10
361.036
 20
198.699
 30
0.0
 11
361.036
 21
216.699
 31
0.0
  0
LINE
  5
1C0
330
1F
100
AcDbEntity
  8
0
 62
     1
100
AcDbLine
 10
361.036
 20
216.699
 30
0.0
 11
358.038
 21
216.699
 31
0.0
  0
LINE
  5
1C1
330
1F
100
AcDbEntity
  8
0
 62
     1
100
AcDbLine
 10
358.038
 20
216.699
 30
0.0
 11
358.038
 21
228.699
 31
0.0
  0
LINE
  5
1C2
330
1F
100
AcDbEntity
  8
0
 62
     1
100
AcDbLine
 10
358.038
 20
228.699
 30
0.0
 11
361.036
 21
228.699
 31
0.0
  0
LINE
  5
1C3
330
1F
100
AcDbEntity
  8
0
 62
     1
100
AcDbLine
 10
361.036
 20
228.699
 30
0.0
 11
361.036
 21
240.699
 31
0.0
  0
LINE
  5
1C4
330
1F
100
AcDbEntity
  8
0
 62
     1
100
AcDbLine
 10
361.036
 20
240.699
 30
0.0
 11
358.038
 21
240.699
 31
0.0
  0
LINE
  5
1C5
330
1F
100
AcDbEntity
  8
0
 62
     1
100
AcDbLine
 10
358.038
 20
240.699
 30
0.0
 11
358.038
 21
252.699
 31
0.0
  0
LINE
  5
1C6
330
1F
100
AcDbEntity
  8
0
 62
     1
100
AcDbLine
 10
358.038
 20
252.699
 30
0.0
 11
361.036
 21
252.699
 31
0.0
  0
LINE
  5
1C7
330
1F
100
AcDbEntity
  8
0
 62
     1
100
AcDbLine
 10
361.036
 20
252.699
 30
0.0
 11
361.036
 21
264.7
 31
0.0
  0
LINE
  5
1C8
330
1F
100
AcDbEntity
  8
0
 62
     1
100
AcDbLine
 10
361.036
 20
264.7
 30
0.0
 11
358.038
 21
264.7
 31
0.0
  0
LINE
  5
1C9
330
1F
100
AcDbEntity
  8
0
 62
     1
100
AcDbLine
 10
358.038
 20
264.7
 30
0.0
 11
358.038
 21
276.701
 31
0.0
  0
LINE
  5
1CA
330
1F
100
AcDbEntity
  8
0
 62
     1
100
AcDbLine
 10
358.038
 20
276.701
 30
0.0
 11
361.036
 21
276.701
 31
0.0
  0
LINE
  5
1CB
330
1F
100
AcDbEntity
  8
0
 62
     1
100
AcDbLine
 10
361.036
 20
276.701
 30
0.0
 11
361.036
 21
288.7
 31
0.0
  0
LINE
  5
1CC
330
1F
100
AcDbEntity
  8
0
 62
     1
100
AcDbLine
 10
361.036
 20
288.7
 30
0.0
 11
358.038
 21
288.7
 31
0.0
  0
LINE
  5
1CD
330
1F
100
AcDbEntity
  8
0
 62
     1
100
AcDbLine
 10
358.038
 20
288.7
 30
0.0
 11
358.038
 21
300.7
 31
0.0
  0
LINE
  5
1CE
330
1F
100
AcDbEntity
  8
0
 62
     1
100
AcDbLine
 10
358.038
 20
300.7
 30
0.0
 11
361.036
 21
300.7
 31
0.0
  0
LINE
  5
1CF
330
1F
100
AcDbEntity
  8
0
 62
     1
100
AcDbLine
 10
361.036
 20
300.7
 30
0.0
 11
361.036
 21
312.7
 31
0.0
  0
LINE
  5
1D0
330
1F
100
AcDbEntity
  8
0
 62
     1
100
AcDbLine
 10
361.036
 20
312.7
 30
0.0
 11
361.036
 21
318.7
 31
0.0
  0
LINE
  5
1D1
330
1F
100
AcDbEntity
  8
0
 62
     1
100
AcDbLine
 10
361.036
 20
318.7
 30
0.0
 11
341.037
 21
318.7
 31
0.0
  0
LINE
  5
1D2
330
1F
100
AcDbEntity
  8
0
 62
     1
100
AcDbLine
 10
341.037
 20
318.7
 30
0.0
 11
341.037
 21
315.7
 31
0.0
  0
LINE
  5
1D3
330
1F
100
AcDbEntity
  8
0
 62
     1
100
AcDbLine
 10
341.037
 20
315.7
 30
0.0
 11
329.037
 21
315.7
 31
0.0
  0
LINE
  5
1D4
330
1F
100
AcDbEntity
  8
0
 62
     1
100
AcDbLine
 10
329.037
 20
315.7
 30
0.0
 11
329.037
 21
318.7
 31
0.0
  0
LINE
  5
1D5
330
1F
100
AcDbEntity
  8
0
 62
     1
100
AcDbLine
 10
329.037
 20
318.7
 30
0.0
 11
317.037
 21
318.7
 31
0.0
  0
LINE
  5
1D6
330
1F
100
AcDbEntity
  8
0
 62
     1
100
AcDbLine
 10
317.037
 20
318.7
 30
0.0
 11
317.037
 21
315.7
 31
0.0
  0
LINE
  5
1D7
330
1F
100
AcDbEntity
  8
0
 62
     1
100
AcDbLine
 10
317.037
 20
315.7
 30
0.0
 11
305.037
 21
315.7
 31
0.0
  0
LINE
  5
1D8
330
1F
100
AcDbEntity
  8
0
 62
     1
100
AcDbLine
 10
305.037
 20
315.7
 30
0.0
 11
305.037
 21
318.7
 31
0.0
  0
LINE
  5
1D9
330
1F
100
AcDbEntity
  8
0
 62
     1
100
AcDbLine
 10
305.037
 20
318.7
 30
0.0
 11
293.037
 21
318.7
 31
0.0
  0
LINE
  5
1DA
330
1F
100
AcDbEntity
  8
0
 62
     1
100
AcDbLine
 10
293.037
 20
318.7
 30
0.0
 11
293.037
 21
315.7
 31
0.0
  0
LINE
  5
1DB
330
1F
100
AcDbEntity
  8
0
 62
     1
100
AcDbLine
 10
293.037
 20
315.7
 30
0.0
 11
281.037
 21
315.7
 31
0.0
  0
LINE
  5
1DC
330
1F
100
AcDbEntity
  8
0
 62
     1
100
AcDbLine
 10
281.037
 20
315.7
 30
0.0
 11
281.037
 21
318.7
 31
0.0
  0
LINE
  5
1DD
330
1F
100
AcDbEntity
  8
0
 62
     1
100
AcDbLine
 10
281.037
 20
318.7
 30
0.0
 11
269.037
 21
318.7
 31
0.0
  0
LINE
  5
1DE
330
1F
100
AcDbEntity
  8
0
 62
     1
100
AcDbLine
 10
269.037
 20
318.7
 30
0.0
 11
261.036
 21
318.7
 31
0.0
  0
LINE
  5
1DF
330
1F
100
AcDbEntity
  8
0
 62
     1
100
AcDbLine
 10
367.037
 20
318.7
 30
0.0
 11
367.037
 21
300.7
 31
0.0
  0
LINE
  5
1E0
330
1F
100
AcDbEntity
  8
0
 62
     1
100
AcDbLine
 10
367.037
 20
300.7
 30
0.0
 11
364.035
 21
300.7
 31
0.0
  0
LINE
  5
1E1
330
1F
100
AcDbEntity
  8
0
 62
     1
100
AcDbLine
 10
364.035
 20
300.7
 30
0.0
 11
364.035
 21
288.7
 31
0.0
  0
LINE
  5
1E2
330
1F
100
AcDbEntity
  8
0
 62
     1
100
AcDbLine
 10
364.035
 20
288.7
 30
0.0
 11
367.037
 21
288.7
 31
0.0
  0
LINE
  5
1E3
330
1F
100
AcDbEntity
  8
0
 62
     1
100
AcDbLine
 10
367.037
 20
288.7
 30
0.0
 11
367.037
 21
276.701
 31
0.0
  0
LINE
  5
1E4
330
1F
100
AcDbEntity
  8
0
 62
     1
100
AcDbLine
 10
367.037
 20
276.701
 30
0.0
 11
364.035
 21
276.701
 31
0.0
  0
LINE
  5
1E5
330
1F
100
AcDbEntity
  8
0
 62
     1
100
AcDbLine
 10
364.035
 20
276.701
 30
0.0
 11
364.035
 21
264.7
 31
0.0
  0
LINE
  5
1E6
330
1F
100
AcDbEntity
  8
0
 62
     1
100
AcDbLine
 10
364.035
 20
264.7
 30
0.0
 11
367.037
 21
264.7
 31
0.0
  0
LINE
  5
1E7
330
1F
100
AcDbEntity
  8
0
 62
     1
100
AcDbLine
 10
367.037
 20
264.7
 30
0.0
 11
367.037
 21
252.699
 31
0.0
  0
LINE
  5
1E8
330
1F
100
AcDbEntity
  8
0
 62
     1
100
AcDbLine
 10
367.037
 20
252.699
 30
0.0
 11
364.035
 21
252.699
 31
0.0
  0
LINE
  5
1E9
330
1F
100
AcDbEntity
  8
0
 62
     1
100
AcDbLine
 10
364.035
 20
252.699
 30
0.0
 11
364.035
 21
240.699
 31
0.0
  0
LINE
  5
1EA
330
1F
100
AcDbEntity
  8
0
 62
     1
100
AcDbLine
 10
364.035
 20
240.699
 30
0.0
 11
367.037
 21
240.699
 31
0.0
  0
LINE
  5
1EB
330
1F
100
AcDbEntity
  8
0
 62
     1
100
AcDbLine
 10
367.037
 20
240.699
 30
0.0
 11
367.037
 21
228.699
 31
0.0
  0
LINE
  5
1EC
330
1F
100
AcDbEntity
  8
0
 62
     1
100
AcDbLine
 10
367.037
 20
228.699
 30
0.0
 11
364.035
 21
228.699
 31
0.0
  0
LINE
  5
1ED
330
1F
100
AcDbEntity
  8
0
 62
     1
100
AcDbLine
 10
364.035
 20
228.699
 30
0.0
 11
364.035
 21
216.699
 31
0.0
  0
LINE
  5
1EE
330
1F
100
AcDbEntity
  8
0
 62
     1
100
AcDbLine
 10
364.035
 20
216.699
 30
0.0
 11
367.037
 21
216.699
 31
0.0
  0
LINE
  5
1EF
330
1F
100
AcDbEntity
  8
0
 62
     1
100
AcDbLine
 10
367.037
 20
216.699
 30
0.0
 11
367.037
 21
204.699
 31
0.0
  0
LINE
  5
1F0
330
1F
100
AcDbEntity
  8
0
 62
     1
100
AcDbLine
 10
367.037
 20
204.699
 30
0.0
 11
367.037
 21
198.699
 31
0.0
  0
LINE
  5
1F1
330
1F
100
AcDbEntity
  8
0
 62
     1
100
AcDbLine
 10
367.037
 20
198.699
 30
0.0
 11
370.537
 21
198.699
 31
0.0
  0
LINE
  5
1F2
330
1F
100
AcDbEntity
  8
0
 62
     1
100
AcDbLine
 10
370.537
 20
198.699
 30
0.0
 11
370.537
 21
201.699
 31
0.0
  0
LINE
  5
1F3
330
1F
100
AcDbEntity
  8
0
 62
     1
100
AcDbLine
 10
370.537
 20
201.699
 30
0.0
 11
382.538
 21
201.699
 31
0.0
  0
LINE
  5
1F4
330
1F
100
AcDbEntity
  8
0
 62
     1
100
AcDbLine
 10
382.538
 20
201.699
 30
0.0
 11
382.538
 21
198.699
 31
0.0
  0
LINE
  5
1F5
330
1F
100
AcDbEntity
  8
0
 62
     1
100
AcDbLine
 10
382.538
 20
198.699
 30
0.0
 11
386.038
 21
198.699
 31
0.0
  0
LINE
  5
1F6
330
1F
100
AcDbEntity
  8
0
 62
     1
100
AcDbLine
 10
386.038
 20
198.699
 30
0.0
 11
386.038
 21
216.699
 31
0.0
  0
LINE
  5
1F7
330
1F
100
AcDbEntity
  8
0
 62
     1
100
AcDbLine
 10
386.038
 20
216.699
 30
0.0
 11
389.036
 21
216.699
 31
0.0
  0
LINE
  5
1F8
330
1F
100
AcDbEntity
  8
0
 62
     1
100
AcDbLine
 10
389.036
 20
216.699
 30
0.0
 11
389.036
 21
228.699
 31
0.0
  0
LINE
  5
1F9
330
1F
100
AcDbEntity
  8
0
 62
     1
100
AcDbLine
 10
389.036
 20
228.699
 30
0.0
 11
386.038
 21
228.699
 31
0.0
  0
LINE
  5
1FA
330
1F
100
AcDbEntity
  8
0
 62
     1
100
AcDbLine
 10
386.038
 20
228.699
 30
0.0
 11
386.038
 21
240.699
 31
0.0
  0
LINE
  5
1FB
330
1F
100
AcDbEntity
  8
0
 62
     1
100
AcDbLine
 10
386.038
 20
240.699
 30
0.0
 11
389.036
 21
240.699
 31
0.0
  0
LINE
  5
1FC
330
1F
100
AcDbEntity
  8
0
 62
     1
100
AcDbLine
 10
389.036
 20
240.699
 30
0.0
 11
389.036
 21
252.699
 31
0.0
  0
LINE
  5
1FD
330
1F
100
AcDbEntity
  8
0
 62
     1
100
AcDbLine
 10
389.036
 20
252.699
 30
0.0
 11
386.038
 21
252.699
 31
0.0
  0
LINE
  5
1FE
330
1F
100
AcDbEntity
  8
0
 62
     1
100
AcDbLine
 10
386.038
 20
252.699
 30
0.0
 11
386.038
 21
264.7
 31
0.0
  0
LINE
  5
1FF
330
1F
100
AcDbEntity
  8
0
 62
     1
100
AcDbLine
 10
386.038
 20
264.7
 30
0.0
 11
389.036
 21
264.7
 31
0.0
  0
LINE
  5
200
330
1F
100
AcDbEntity
  8
0
 62
     1
100
AcDbLine
 10
389.036
 20
264.7
 30
0.0
 11
389.036
 21
276.701
 31
0.0
  0
LINE
  5
201
330
1F
100
AcDbEntity
  8
0
 62
     1
100
AcDbLine
 10
389.036
 20
276.701
 30
0.0
 11
386.038
 21
276.701
 31
0.0
  0
LINE
  5
202
330
1F
100
AcDbEntity
  8
0
 62
     1
100
AcDbLine
 10
386.038
 20
276.701
 30
0.0
 11
386.038
 21
288.7
 31
0.0
  0
LINE
  5
203
330
1F
100
AcDbEntity
  8
0
 62
     1
100
AcDbLine
 10
386.038
 20
288.7
 30
0.0
 11
389.036
 21
288.7
 31
0.0
  0
LINE
  5
204
330
1F
100
AcDbEntity
  8
0
 62
     1
100
AcDbLine
 10
389.036
 20
288.7
 30
0.0
 11
389.036
 21
300.7
 31
0.0
  0
LINE
  5
205
330
1F
100
AcDbEntity
  8
0
 62
     1
100
AcDbLine
 10
389.036
 20
300.7
 30
0.0
 11
386.038
 21
300.7
 31
0.0
  0
LINE
  5
206
330
1F
100
AcDbEntity
  8
0
 62
     1
100
AcDbLine
 10
386.038
 20
300.7
 30
0.0
 11
386.038
 21
312.7
 31
0.0
  0
LINE
  5
207
330
1F
100
AcDbEntity
  8
0
 62
     1
100
AcDbLine
 10
386.038
 20
312.7
 30
0.0
 11
386.038
 21
318.7
 31
0.0
  0
LINE
  5
208
330
1F
100
AcDbEntity
  8
0
 62
     1
100
AcDbLine
 10
386.038
 20
318.7
 30
0.0
 11
382.538
 21
318.7
 31
0.0
  0
LINE
  5
209
330
1F
100
AcDbEntity
  8
0
 62
     1
100
AcDbLine
 10
382.538
 20
318.7
 30
0.0
 11
382.538
 21
315.7
 31
0.0
  0
LINE
  5
20A
330
1F
100
AcDbEntity
  8
0
 62
     1
100
AcDbLine
 10
382.538
 20
315.7
 30
0.0
 11
370.537
 21
315.7
 31
0.0
  0
LINE
  5
20B
330
1F
100
AcDbEntity
  8
0
 62
     1
100
AcDbLine
 10
370.537
 20
315.7
 30
0.0
 11
370.537
 21
318.7
 31
0.0
  0
LINE
  5
20C
330
1F
100
AcDbEntity
  8
0
 62
     1
100
AcDbLine
 10
370.537
 20
318.7
 30
0.0
 11
367.037
 21
318.7
 31
0.0
  0
LINE
  5
20D
330
1F
100
AcDbEntity
  8
0
 62
     1
100
AcDbLine
 10
394.212
 20
344.7
 30
0.0
 11
397.711
 21
344.7
 31
0.0
  0
LINE
  5
20E
330
1F
100
AcDbEntity
  8
0
 62
     1
100
AcDbLine
 10
397.711
 20
344.7
 30
0.0
 11
397.711
 21
341.7
 31
0.0
  0
LINE
  5
20F
330
1F
100
AcDbEntity
  8
0
 62
     1
100
AcDbLine
 10
397.711
 20
341.7
 30
0.0
 11
409.713
 21
341.7
 31
0.0
  0
LINE
  5
210
330
1F
100
AcDbEntity
  8
0
 62
     1
100
AcDbLine
 10
409.713
 20
341.7
 30
0.0
 11
409.713
 21
344.7
 31
0.0
  0
LINE
  5
211
330
1F
100
AcDbEntity
  8
0
 62
     1
100
AcDbLine
 10
409.713
 20
344.7
 30
0.0
 11
413.212
 21
344.7
 31
0.0
  0
LINE
  5
212
330
1F
100
AcDbEntity
  8
0
 62
     1
100
AcDbLine
 10
413.212
 20
344.7
 30
0.0
 11
413.212
 21
361.7
 31
0.0
  0
LINE
  5
213
330
1F
100
AcDbEntity
  8
0
 62
     1
100
AcDbLine
 10
413.212
 20
361.7
 30
0.0
 11
416.211
 21
361.7
 31
0.0
  0
LINE
  5
214
330
1F
100
AcDbEntity
  8
0
 62
     1
100
AcDbLine
 10
416.211
 20
361.7
 30
0.0
 11
416.211
 21
373.701
 31
0.0
  0
LINE
  5
215
330
1F
100
AcDbEntity
  8
0
 62
     1
100
AcDbLine
 10
416.211
 20
373.701
 30
0.0
 11
413.212
 21
373.701
 31
0.0
  0
LINE
  5
216
330
1F
100
AcDbEntity
  8
0
 62
     1
100
AcDbLine
 10
413.212
 20
373.701
 30
0.0
 11
413.212
 21
385.699
 31
0.0
  0
LINE
  5
217
330
1F
100
AcDbEntity
  8
0
 62
     1
100
AcDbLine
 10
413.212
 20
385.699
 30
0.0
 11
416.211
 21
385.699
 31
0.0
  0
LINE
  5
218
330
1F
100
AcDbEntity
  8
0
 62
     1
100
AcDbLine
 10
416.211
 20
385.699
 30
0.0
 11
416.211
 21
397.7
 31
0.0
  0
LINE
  5
219
330
1F
100
AcDbEntity
  8
0
 62
     1
100
AcDbLine
 10
416.211
 20
397.7
 30
0.0
 11
413.212
 21
397.7
 31
0.0
  0
LINE
  5
21A
330
1F
100
AcDbEntity
  8
0
 62
     1
100
AcDbLine
 10
413.212
 20
397.7
 30
0.0
 11
413.212
 21
409.702
 31
0.0
  0
LINE
  5
21B
330
1F
100
AcDbEntity
  8
0
 62
     1
100
AcDbLine
 10
413.212
 20
409.702
 30
0.0
 11
416.211
 21
409.702
 31
0.0
  0
LINE
  5
21C
330
1F
100
AcDbEntity
  8
0
 62
     1
100
AcDbLine
 10
416.211
 20
409.702
 30
0.0
 11
416.211
 21
421.7
 31
0.0
  0
LINE
  5
21D
330
1F
100
AcDbEntity
  8
0
 62
     1
100
AcDbLine
 10
416.211
 20
421.7
 30
0.0
 11
413.212
 21
421.7
 31
0.0
  0
LINE
  5
21E
330
1F
100
AcDbEntity
  8
0
 62
     1
100
AcDbLine
 10
413.212
 20
421.7
 30
0.0
 11
413.212
 21
433.701
 31
0.0
  0
LINE
  5
21F
330
1F
100
AcDbEntity
  8
0
 62
     1
100
AcDbLine
 10
413.212
 20
433.701
 30
0.0
 11
413.212
 21
438.7
 31
0.0
  0
LINE
  5
220
330
1F
100
AcDbEntity
  8
0
 62
     1
100
AcDbLine
 10
413.212
 20
438.7
 30
0.0
 11
409.713
 21
438.7
 31
0.0
  0
LINE
  5
221
330
1F
100
AcDbEntity
  8
0
 62
     1
100
AcDbLine
 10
409.713
 20
438.7
 30
0.0
 11
409.713
 21
441.699
 31
0.0
  0
LINE
  5
222
330
1F
100
AcDbEntity
  8
0
 62
     1
100
AcDbLine
 10
409.713
 20
441.699
 30
0.0
 11
397.711
 21
441.699
 31
0.0
  0
LINE
  5
223
330
1F
100
AcDbEntity
  8
0
 62
     1
100
AcDbLine
 10
397.711
 20
441.699
 30
0.0
 11
397.711
 21
438.7
 31
0.0
  0
LINE
  5
224
330
1F
100
AcDbEntity
  8
0
 62
     1
100
AcDbLine
 10
397.711
 20
438.7
 30
0.0
 11
394.212
 21
438.7
 31
0.0
  0
LINE
  5
225
330
1F
100
AcDbEntity
  8
0
 62
     1
100
AcDbLine
 10
394.212
 20
438.7
 30
0.0
 11
394.212
 21
421.7
 31
0.0
  0
LINE
  5
226
330
1F
100
AcDbEntity
  8
0
 62
     1
100
AcDbLine
 10
394.212
 20
421.7
 30
0.0
 11
391.213
 21
421.7
 31
0.0
  0
LINE
  5
227
330
1F
100
AcDbEntity
  8
0
 62
     1
100
AcDbLine
 10
391.213
 20
421.7
 30
0.0
 11
391.213
 21
409.702
 31
0.0
  0
LINE
  5
228
330
1F
100
AcDbEntity
  8
0
 62
     1
100
AcDbLine
 10
391.213
 20
409.702
 30
0.0
 11
394.212
 21
409.702
 31
0.0
  0
LINE
  5
229
330
1F
100
AcDbEntity
  8
0
 62
     1
100
AcDbLine
 10
394.212
 20
409.702
 30
0.0
 11
394.212
 21
397.7
 31
0.0
  0
LINE
  5
22A
330
1F
100
AcDbEntity
  8
0
 62
     1
100
AcDbLine
 10
394.212
 20
397.7
 30
0.0
 11
391.213
 21
397.7
 31
0.0
  0
LINE
  5
22B
330
1F
100
AcDbEntity
  8
0
 62
     1
100
AcDbLine
 10
391.213
 20
397.7
 30
0.0
 11
391.213
 21
385.699
 31
0.0
  0
LINE
  5
22C
330
1F
100
AcDbEntity
  8
0
 62
     1
100
AcDbLine
 10
391.213
 20
385.699
 30
0.0
 11
394.212
 21
385.699
 31
0.0
  0
LINE
  5
22D
330
1F
100
AcDbEntity
  8
0
 62
     1
100
AcDbLine
 10
394.212
 20
385.699
 30
0.0
 11
394.212
 21
373.701
 31
0.0
  0
LINE
  5
22E
330
1F
100
AcDbEntity
  8
0
 62
     1
100
AcDbLine
 10
394.212
 20
373.701
 30
0.0
 11
391.213
 21
373.701
 31
0.0
  0
LINE
  5
22F
330
1F
100
AcDbEntity
  8
0
 62
     1
100
AcDbLine
 10
391.213
 20
373.701
 30
0.0
 11
391.213
 21
361.7
 31
0.0
  0
LINE
  5
230
330
1F
100
AcDbEntity
  8
0
 62
     1
100
AcDbLine
 10
391.213
 20
361.7
 30
0.0
 11
394.212
 21
361.7
 31
0.0
  0
LINE
  5
231
330
1F
100
AcDbEntity
  8
0
 62
     1
100
AcDbLine
 10
394.212
 20
361.7
 30
0.0
 11
394.212
 21
349.7
 31
0.0
  0
LINE
  5
232
330
1F
100
AcDbEntity
  8
0
 62
     1
100
AcDbLine
 10
394.212
 20
349.7
 30
0.0
 11
394.212
 21
344.7
 31
0.0
  0
LINE
  5
233
330
1F
100
AcDbEntity
  8
0
 62
     1
100
AcDbLine
 10
367.136
 20
441.699
 30
0.0
 11
367.136
 21
423.7
 31
0.0
  0
LINE
  5
234
330
1F
100
AcDbEntity
  8
0
 62
     1
100
AcDbLine
 10
367.136
 20
423.7
 30
0.0
 11
364.137
 21
423.7
 31
0.0
  0
LINE
  5
235
330
1F
100
AcDbEntity
  8
0
 62
     1
100
AcDbLine
 10
364.137
 20
423.7
 30
0.0
 11
364.137
 21
411.699
 31
0.0
  0
LINE
  5
236
330
1F
100
AcDbEntity
  8
0
 62
     1
100
AcDbLine
 10
364.137
 20
411.699
 30
0.0
 11
367.136
 21
411.699
 31
0.0
  0
LINE
  5
237
330
1F
100
AcDbEntity
  8
0
 62
     1
100
AcDbLine
 10
367.136
 20
411.699
 30
0.0
 11
367.136
 21
399.701
 31
0.0
  0
LINE
  5
238
330
1F
100
AcDbEntity
  8
0
 62
     1
100
AcDbLine
 10
367.136
 20
399.701
 30
0.0
 11
364.137
 21
399.701
 31
0.0
  0
LINE
  5
239
330
1F
100
AcDbEntity
  8
0
 62
     1
100
AcDbLine
 10
364.137
 20
399.701
 30
0.0
 11
364.137
 21
387.699
 31
0.0
  0
LINE
  5
23A
330
1F
100
AcDbEntity
  8
0
 62
     1
100
AcDbLine
 10
364.137
 20
387.699
 30
0.0
 11
367.136
 21
387.699
 31
0.0
  0
LINE
  5
23B
330
1F
100
AcDbEntity
  8
0
 62
     1
100
AcDbLine
 10
367.136
 20
387.699
 30
0.0
 11
367.136
 21
375.701
 31
0.0
  0
LINE
  5
23C
330
1F
100
AcDbEntity
  8
0
 62
     1
100
AcDbLine
 10
367.136
 20
375.701
 30
0.0
 11
364.137
 21
375.701
 31
0.0
  0
LINE
  5
23D
330
1F
100
AcDbEntity
  8
0
 62
     1
100
AcDbLine
 10
364.137
 20
375.701
 30
0.0
 11
364.137
 21
363.7
 31
0.0
  0
LINE
  5
23E
330
1F
100
AcDbEntity
  8
0
 62
     1
100
AcDbLine
 10
364.137
 20
363.7
 30
0.0
 11
367.136
 21
363.7
 31
0.0
  0
LINE
  5
23F
330
1F
100
AcDbEntity
  8
0
 62
     1
100
AcDbLine
 10
367.136
 20
363.7
 30
0.0
 11
367.136
 21
351.7
 31
0.0
  0
LINE
  5
240
330
1F
100
AcDbEntity
  8
0
 62
     1
100
AcDbLine
 10
367.136
 20
351.7
 30
0.0
 11
364.137
 21
351.7
 31
0.0
  0
LINE
  5
241
330
1F
100
AcDbEntity
  8
0
 62
     1
100
AcDbLine
 10
364.137
 20
351.7
 30
0.0
 11
364.137
 21
339.7
 31
0.0
  0
LINE
  5
242
330
1F
100
AcDbEntity
  8
0
 62
     1
100
AcDbLine
 10
364.137
 20
339.7
 30
0.0
 11
367.136
 21
339.7
 31
0.0
  0
LINE
  5
243
330
1F
100
AcDbEntity
  8
0
 62
     1
100
AcDbLine
 10
367.136
 20
339.7
 30
0.0
 11
367.136
 21
327.7
 31
0.0
  0
LINE
  5
244
330
1F
100
AcDbEntity
  8
0
 62
     1
100
AcDbLine
 10
367.136
 20
327.7
 30
0.0
 11
367.136
 21
321.7
 31
0.0
  0
LINE
  5
245
330
1F
100
AcDbEntity
  8
0
 62
     1
100
AcDbLine
 10
367.136
 20
321.7
 30
0.0
 11
370.639
 21
321.7
 31
0.0
  0
LINE
  5
246
330
1F
100
AcDbEntity
  8
0
 62
     1
100
AcDbLine
 10
370.639
 20
321.7
 30
0.0
 11
370.639
 21
324.7
 31
0.0
  0
LINE
  5
247
330
1F
100
AcDbEntity
  8
0
 62
     1
100
AcDbLine
 10
370.639
 20
324.7
 30
0.0
 11
382.637
 21
324.7
 31
0.0
  0
LINE
  5
248
330
1F
100
AcDbEntity
  8
0
 62
     1
100
AcDbLine
 10
382.637
 20
324.7
 30
0.0
 11
382.637
 21
321.7
 31
0.0
  0
LINE
  5
249
330
1F
100
AcDbEntity
  8
0
 62
     1
100
AcDbLine
 10
382.637
 20
321.7
 30
0.0
 11
386.136
 21
321.7
 31
0.0
  0
LINE
  5
24A
330
1F
100
AcDbEntity
  8
0
 62
     1
100
AcDbLine
 10
386.136
 20
321.7
 30
0.0
 11
386.136
 21
339.7
 31
0.0
  0
LINE
  5
24B
330
1F
100
AcDbEntity
  8
0
 62
     1
100
AcDbLine
 10
386.136
 20
339.7
 30
0.0
 11
389.139
 21
339.7
 31
0.0
  0
LINE
  5
24C
330
1F
100
AcDbEntity
  8
0
 62
     1
100
AcDbLine
 10
389.139
 20
339.7
 30
0.0
 11
389.139
 21
351.7
 31
0.0
  0
LINE
  5
24D
330
1F
100
AcDbEntity
  8
0
 62
     1
100
AcDbLine
 10
389.139
 20
351.7
 30
0.0
 11
386.136
 21
351.7
 31
0.0
  0
LINE
  5
24E
330
1F
100
AcDbEntity
  8
0
 62
     1
100
AcDbLine
 10
386.136
 20
351.7
 30
0.0
 11
386.136
 21
363.7
 31
0.0
  0
LINE
  5
24F
330
1F
100
AcDbEntity
  8
0
 62
     1
100
AcDbLine
 10
386.136
 20
363.7
 30
0.0
 11
389.139
 21
363.7
 31
0.0
  0
LINE
  5
250
330
1F
100
AcDbEntity
  8
0
 62
     1
100
AcDbLine
 10
389.139
 20
363.7
 30
0.0
 11
389.139
 21
375.701
 31
0.0
  0
LINE
  5
251
330
1F
100
AcDbEntity
  8
0
 62
     1
100
AcDbLine
 10
389.139
 20
375.701
 30
0.0
 11
386.136
 21
375.701
 31
0.0
  0
LINE
  5
252
330
1F
100
AcDbEntity
  8
0
 62
     1
100
AcDbLine
 10
386.136
 20
375.701
 30
0.0
 11
386.136
 21
387.699
 31
0.0
  0
LINE
  5
253
330
1F
100
AcDbEntity
  8
0
 62
     1
100
AcDbLine
 10
386.136
 20
387.699
 30
0.0
 11
389.139
 21
387.699
 31
0.0
  0
LINE
  5
254
330
1F
100
AcDbEntity
  8
0
 62
     1
100
AcDbLine
 10
389.139
 20
387.699
 30
0.0
 11
389.139
 21
399.701
 31
0.0
  0
LINE
  5
255
330
1F
100
AcDbEntity
  8
0
 62
     1
100
AcDbLine
 10
389.139
 20
399.701
 30
0.0
 11
386.136
 21
399.701
 31
0.0
  0
LINE
  5
256
330
1F
100
AcDbEntity
  8
0
 62
     1
100
AcDbLine
 10
386.136
 20
399.701
 30
0.0
 11
386.136
 21
411.699
 31
0.0
  0
LINE
  5
257
330
1F
100
AcDbEntity
  8
0
 62
     1
100
AcDbLine
 10
386.136
 20
411.699
 30
0.0
 11
389.139
 21
411.699
 31
0.0
  0
LINE
  5
258
330
1F
100
AcDbEntity
  8
0
 62
     1
100
AcDbLine
 10
389.139
 20
411.699
 30
0.0
 11
389.139
 21
423.7
 31
0.0
  0
LINE
  5
259
330
1F
100
AcDbEntity
  8
0
 62
     1
100
AcDbLine
 10
389.139
 20
423.7
 30
0.0
 11
386.136
 21
423.7
 31
0.0
  0
LINE
  5
25A
330
1F
100
AcDbEntity
  8
0
 62
     1
100
AcDbLine
 10
386.136
 20
423.7
 30
0.0
 11
386.136
 21
435.702
 31
0.0
  0
LINE
  5
25B
330
1F
100
AcDbEntity
  8
0
 62
     1
100
AcDbLine
 10
386.136
 20
435.702
 30
0.0
 11
386.136
 21
441.699
 31
0.0
  0
LINE
  5
25C
330
1F
100
AcDbEntity
  8
0
 62
     1
100
AcDbLine
 10
386.136
 20
441.699
 30
0.0
 11
382.637
 21
441.699
 31
0.0
  0
LINE
  5
25D
330
1F
100
AcDbEntity
  8
0
 62
     1
100
AcDbLine
 10
382.637
 20
441.699
 30
0.0
 11
382.637
 21
438.7
 31
0.0
  0
LINE
  5
25E
330
1F
100
AcDbEntity
  8
0
 62
     1
100
AcDbLine
 10
382.637
 20
438.7
 30
0.0
 11
370.639
 21
438.7
 31
0.0
  0
LINE
  5
25F
330
1F
100
AcDbEntity
  8
0
 62
     1
100
AcDbLine
 10
370.639
 20
438.7
 30
0.0
 11
370.639
 21
441.699
 31
0.0
  0
LINE
  5
260
330
1F
100
AcDbEntity
  8
0
 62
     1
100
AcDbLine
 10
370.639
 20
441.699
 30
0.0
 11
367.136
 21
441.699
 31
0.0
  0
SPLINE
  5
261
330
1F
100
AcDbEntity
  8
0
 62
     0
100
AcDbSpline
 70
     0
 71
     3
 72
     8
 73
     4
 74
     0
 42
0.000000001
 43
0.0000001
 40
0.0
 40
0.0
 40
0.0
 40
0.0
 40
1.0
 40
1.0
 40
1.0
 40
1.0
 10
322.593
 20
376.47
 30
0.0
 10
320.66
 20
376.851
 30
0.0
 10
318.981
 20
376.908
 30
0.0
 10
317.12
 20
376.657
 30
0.0
  0
SPLINE
  5
262
330
1F
100
AcDbEntity
  8
0
 62
     0
100
AcDbSpline
 70
     0
 71
     3
 72
     8
 73
     4
 74
     0
 42
0.000000001
 43
0.0000001
 40
0.0
 40
0.0
 40
0.0
 40
0.0
 40
1.0
 40
1.0
 40
1.0
 40
1.0
 10
317.12
 20
376.657
 30
0.0
 10
315.874
 20
376.488
 30
0.0
 10
315.422
 20
376.47
 30
0.0
 10
315.161
 20
376.58
 30
0.0
  0
SPLINE
  5
263
330
1F
100
AcDbEntity
  8
0
 62
     0
100
AcDbSpline
 70
     0
 71
     3
 72
     8
 73
     4
 74
     0
 42
0.000000001
 43
0.0000001
 40
0.0
 40
0.0
 40
0.0
 40
0.0
 40
1.0
 40
1.0
 40
1.0
 40
1.0
 10
315.161
 20
376.58
 30
0.0
 10
314.712
 20
376.77
 30
0.0
 10
312.975
 20
379.091
 30
0.0
 10
312.502
 20
380.136
 30
0.0
  0
SPLINE
  5
264
330
1F
100
AcDbEntity
  8
0
 62
     0
100
AcDbSpline
 70
     0
 71
     3
 72
     8
 73
     4
 74
     0
 42
0.000000001
 43
0.0000001
 40
0.0
 40
0.0
 40
0.0
 40
0.0
 40
1.0
 40
1.0
 40
1.0
 40
1.0
 10
312.502
 20
380.136
 30
0.0
 10
312.076
 20
381.071
 30
0.0
 10
311.728
 20
382.312
 30
0.0
 10
311.728
 20
382.887
 30
0.0
  0
SPLINE
  5
265
330
1F
100
AcDbEntity
  8
0
 62
     0
100
AcDbSpline
 70
     0
 71
     3
 72
     8
 73
     4
 74
     0
 42
0.000000001
 43
0.0000001
 40
0.0
 40
0.0
 40
0.0
 40
0.0
 40
1.0
 40
1.0
 40
1.0
 40
1.0
 10
311.728
 20
382.887
 30
0.0
 10
311.728
 20
383.318
 30
0.0
 10
312.004
 20
383.536
 30
0.0
 10
312.549
 20
383.536
 30
0.0
  0
SPLINE
  5
266
330
1F
100
AcDbEntity
  8
0
 62
     0
100
AcDbSpline
 70
     0
 71
     3
 72
     8
 73
     4
 74
     0
 42
0.000000001
 43
0.0000001
 40
0.0
 40
0.0
 40
0.0
 40
0.0
 40
1.0
 40
1.0
 40
1.0
 40
1.0
 10
312.549
 20
383.536
 30
0.0
 10
313.278
 20
383.536
 30
0.0
 10
313.624
 20
384.087
 30
0.0
 10
313.621
 20
385.244
 30
0.0
  0
SPLINE
  5
267
330
1F
100
AcDbEntity
  8
0
 62
     0
100
AcDbSpline
 70
     0
 71
     3
 72
     8
 73
     4
 74
     0
 42
0.000000001
 43
0.0000001
 40
0.0
 40
0.0
 40
0.0
 40
0.0
 40
1.0
 40
1.0
 40
1.0
 40
1.0
 10
313.621
 20
385.244
 30
0.0
 10
313.619
 20
385.889
 30
0.0
 10
313.533
 20
386.016
 30
0.0
 10
312.993
 20
386.154
 30
0.0
  0
SPLINE
  5
268
330
1F
100
AcDbEntity
  8
0
 62
     0
100
AcDbSpline
 70
     0
 71
     3
 72
     8
 73
     4
 74
     0
 42
0.000000001
 43
0.0000001
 40
0.0
 40
0.0
 40
0.0
 40
0.0
 40
1.0
 40
1.0
 40
1.0
 40
1.0
 10
312.993
 20
386.154
 30
0.0
 10
312.626
 20
386.249
 30
0.0
 10
312.51
 20
386.369
 30
0.0
 10
312.304
 20
386.867
 30
0.0
  0
LINE
  5
269
330
1F
100
AcDbEntity
  8
0
 62
     0
100
AcDbLine
 10
312.304
 20
386.867
 30
0.0
 11
312.055
 21
387.466
 31
0.0
  0
LINE
  5
26A
330
1F
100
AcDbEntity
  8
0
 62
     0
100
AcDbLine
 10
312.055
 20
387.466
 30
0.0
 11
312.429
 21
387.773
 31
0.0
  0
SPLINE
  5
26B
330
1F
100
AcDbEntity
  8
0
 62
     0
100
AcDbSpline
 70
     0
 71
     3
 72
     8
 73
     4
 74
     0
 42
0.000000001
 43
0.0000001
 40
0.0
 40
0.0
 40
0.0
 40
0.0
 40
1.0
 40
1.0
 40
1.0
 40
1.0
 10
312.429
 20
387.773
 30
0.0
 10
313.188
 20
388.401
 30
0.0
 10
315.104
 20
389.632
 30
0.0
 10
315.961
 20
390.042
 30
0.0
  0
SPLINE
  5
26C
330
1F
100
AcDbEntity
  8
0
 62
     0
100
AcDbSpline
 70
     0
 71
     3
 72
     8
 73
     4
 74
     0
 42
0.000000001
 43
0.0000001
 40
0.0
 40
0.0
 40
0.0
 40
0.0
 40
1.0
 40
1.0
 40
1.0
 40
1.0
 10
315.961
 20
390.042
 30
0.0
 10
317.375
 20
390.723
 30
0.0
 10
318.397
 20
391.015
 30
0.0
 10
319.585
 20
391.086
 30
0.0
  0
SPLINE
  5
26D
330
1F
100
AcDbEntity
  8
0
 62
     0
100
AcDbSpline
 70
     0
 71
     3
 72
     8
 73
     4
 74
     0
 42
0.000000001
 43
0.0000001
 40
0.0
 40
0.0
 40
0.0
 40
0.0
 40
1.0
 40
1.0
 40
1.0
 40
1.0
 10
319.585
 20
391.086
 30
0.0
 10
321.324
 20
391.188
 30
0.0
 10
322.632
 20
390.733
 30
0.0
 10
323.77
 20
389.625
 30
0.0
  0
SPLINE
  5
26E
330
1F
100
AcDbEntity
  8
0
 62
     0
100
AcDbSpline
 70
     0
 71
     3
 72
     8
 73
     4
 74
     0
 42
0.000000001
 43
0.0000001
 40
0.0
 40
0.0
 40
0.0
 40
0.0
 40
1.0
 40
1.0
 40
1.0
 40
1.0
 10
323.77
 20
389.625
 30
0.0
 10
324.343
 20
389.064
 30
0.0
 10
324.951
 20
388.243
 30
0.0
 10
324.85
 20
388.161
 30
0.0
  0
SPLINE
  5
26F
330
1F
100
AcDbEntity
  8
0
 62
     0
100
AcDbSpline
 70
     0
 71
     3
 72
     8
 73
     4
 74
     0
 42
0.000000001
 43
0.0000001
 40
0.0
 40
0.0
 40
0.0
 40
0.0
 40
1.0
 40
1.0
 40
1.0
 40
1.0
 10
324.85
 20
388.161
 30
0.0
 10
324.824
 20
388.14
 30
0.0
 10
324.436
 20
387.879
 30
0.0
 10
323.982
 20
387.576
 30
0.0
  0
SPLINE
  5
270
330
1F
100
AcDbEntity
  8
0
 62
     0
100
AcDbSpline
 70
     0
 71
     3
 72
     8
 73
     4
 74
     0
 42
0.000000001
 43
0.0000001
 40
0.0
 40
0.0
 40
0.0
 40
0.0
 40
1.0
 40
1.0
 40
1.0
 40
1.0
 10
323.982
 20
387.576
 30
0.0
 10
322.886
 20
386.846
 30
0.0
 10
321.527
 20
385.459
 30
0.0
 10
321.332
 20
384.87
 30
0.0
  0
SPLINE
  5
271
330
1F
100
AcDbEntity
  8
0
 62
     0
100
AcDbSpline
 70
     0
 71
     3
 72
     8
 73
     4
 74
     0
 42
0.000000001
 43
0.0000001
 40
0.0
 40
0.0
 40
0.0
 40
0.0
 40
1.0
 40
1.0
 40
1.0
 40
1.0
 10
321.332
 20
384.87
 30
0.0
 10
321.05
 20
384.016
 30
0.0
 10
321.58
 20
382.644
 30
0.0
 10
322.728
 20
381.265
 30
0.0
  0
SPLINE
  5
272
330
1F
100
AcDbEntity
  8
0
 62
     0
100
AcDbSpline
 70
     0
 71
     3
 72
     8
 73
     4
 74
     0
 42
0.000000001
 43
0.0000001
 40
0.0
 40
0.0
 40
0.0
 40
0.0
 40
1.0
 40
1.0
 40
1.0
 40
1.0
 10
322.728
 20
381.265
 30
0.0
 10
323.315
 20
380.559
 30
0.0
 10
323.894
 20
380.122
 30
0.0
 10
324.042
 20
380.27
 30
0.0
  0
SPLINE
  5
273
330
1F
100
AcDbEntity
  8
0
 62
     0
100
AcDbSpline
 70
     0
 71
     3
 72
     8
 73
     4
 74
     0
 42
0.000000001
 43
0.0000001
 40
0.0
 40
0.0
 40
0.0
 40
0.0
 40
1.0
 40
1.0
 40
1.0
 40
1.0
 10
324.042
 20
380.27
 30
0.0
 10
324.075
 20
380.302
 30
0.0
 10
323.769
 20
380.679
 30
0.0
 10
323.362
 20
381.113
 30
0.0
  0
SPLINE
  5
274
330
1F
100
AcDbEntity
  8
0
 62
     0
100
AcDbSpline
 70
     0
 71
     3
 72
     8
 73
     4
 74
     0
 42
0.000000001
 43
0.0000001
 40
0.0
 40
0.0
 40
0.0
 40
0.0
 40
1.0
 40
1.0
 40
1.0
 40
1.0
 10
323.362
 20
381.113
 30
0.0
 10
322.428
 20
382.111
 30
0.0
 10
321.838
 20
383.201
 30
0.0
 10
321.746
 20
384.108
 30
0.0
  0
SPLINE
  5
275
330
1F
100
AcDbEntity
  8
0
 62
     0
100
AcDbSpline
 70
     0
 71
     3
 72
     8
 73
     4
 74
     0
 42
0.000000001
 43
0.0000001
 40
0.0
 40
0.0
 40
0.0
 40
0.0
 40
1.0
 40
1.0
 40
1.0
 40
1.0
 10
321.746
 20
384.108
 30
0.0
 10
321.684
 20
384.704
 30
0.0
 10
321.717
 20
384.863
 30
0.0
 10
321.996
 20
385.286
 30
0.0
  0
SPLINE
  5
276
330
1F
100
AcDbEntity
  8
0
 62
     0
100
AcDbSpline
 70
     0
 71
     3
 72
     8
 73
     4
 74
     0
 42
0.000000001
 43
0.0000001
 40
0.0
 40
0.0
 40
0.0
 40
0.0
 40
1.0
 40
1.0
 40
1.0
 40
1.0
 10
321.996
 20
385.286
 30
0.0
 10
322.174
 20
385.554
 30
0.0
 10
322.622
 20
386.031
 30
0.0
 10
322.993
 20
386.341
 30
0.0
  0
SPLINE
  5
277
330
1F
100
AcDbEntity
  8
0
 62
     0
100
AcDbSpline
 70
     0
 71
     3
 72
     8
 73
     4
 74
     0
 42
0.000000001
 43
0.0000001
 40
0.0
 40
0.0
 40
0.0
 40
0.0
 40
1.0
 40
1.0
 40
1.0
 40
1.0
 10
322.993
 20
386.341
 30
0.0
 10
323.783
 20
387.008
 30
0.0
 10
325.02
 20
387.847
 30
0.0
 10
325.097
 20
387.77
 30
0.0
  0
SPLINE
  5
278
330
1F
100
AcDbEntity
  8
0
 62
     0
100
AcDbSpline
 70
     0
 71
     3
 72
     8
 73
     4
 74
     0
 42
0.000000001
 43
0.0000001
 40
0.0
 40
0.0
 40
0.0
 40
0.0
 40
1.0
 40
1.0
 40
1.0
 40
1.0
 10
325.097
 20
387.77
 30
0.0
 10
325.242
 20
387.629
 30
0.0
 10
324.963
 20
387.11
 30
0.0
 10
324.637
 20
386.92
 30
0.0
  0
SPLINE
  5
279
330
1F
100
AcDbEntity
  8
0
 62
     0
100
AcDbSpline
 70
     0
 71
     3
 72
     8
 73
     4
 74
     0
 42
0.000000001
 43
0.0000001
 40
0.0
 40
0.0
 40
0.0
 40
0.0
 40
1.0
 40
1.0
 40
1.0
 40
1.0
 10
324.637
 20
386.92
 30
0.0
 10
323.485
 20
386.239
 30
0.0
 10
322.341
 20
384.739
 30
0.0
 10
322.341
 20
383.91
 30
0.0
  0
SPLINE
  5
27A
330
1F
100
AcDbEntity
  8
0
 62
     0
100
AcDbSpline
 70
     0
 71
     3
 72
     8
 73
     4
 74
     0
 42
0.000000001
 43
0.0000001
 40
0.0
 40
0.0
 40
0.0
 40
0.0
 40
1.0
 40
1.0
 40
1.0
 40
1.0
 10
322.341
 20
383.91
 30
0.0
 10
322.341
 20
383.166
 30
0.0
 10
323.106
 20
382.005
 30
0.0
 10
324.584
 20
380.51
 30
0.0
  0
SPLINE
  5
27B
330
1F
100
AcDbEntity
  8
0
 62
     0
100
AcDbSpline
 70
     0
 71
     3
 72
     8
 73
     4
 74
     0
 42
0.000000001
 43
0.0000001
 40
0.0
 40
0.0
 40
0.0
 40
0.0
 40
1.0
 40
1.0
 40
1.0
 40
1.0
 10
324.584
 20
380.51
 30
0.0
 10
326.157
 20
378.915
 30
0.0
 10
326.257
 20
378.785
 30
0.0
 10
326.257
 20
378.294
 30
0.0
  0
SPLINE
  5
27C
330
1F
100
AcDbEntity
  8
0
 62
     0
100
AcDbSpline
 70
     0
 71
     3
 72
     8
 73
     4
 74
     0
 42
0.000000001
 43
0.0000001
 40
0.0
 40
0.0
 40
0.0
 40
0.0
 40
1.0
 40
1.0
 40
1.0
 40
1.0
 10
326.257
 20
378.294
 30
0.0
 10
326.257
 20
377.871
 30
0.0
 10
326.073
 20
377.515
 30
0.0
 10
325.579
 20
376.989
 30
0.0
  0
SPLINE
  5
27D
330
1F
100
AcDbEntity
  8
0
 62
     0
100
AcDbSpline
 70
     0
 71
     3
 72
     8
 73
     4
 74
     0
 42
0.000000001
 43
0.0000001
 40
0.0
 40
0.0
 40
0.0
 40
0.0
 40
1.0
 40
1.0
 40
1.0
 40
1.0
 10
325.579
 20
376.989
 30
0.0
 10
324.786
 20
376.142
 30
0.0
 10
324.506
 20
376.093
 30
0.0
 10
322.593
 20
376.47
 30
0.0
  0
LINE
  5
27E
330
1F
100
AcDbEntity
  8
0
 62
     0
100
AcDbLine
 10
322.593
 20
376.47
 30
0.0
 11
322.593
 21
376.47
 31
0.0
  0
SPLINE
  5
27F
330
1F
100
AcDbEntity
  8
0
 62
     0
100
AcDbSpline
 70
     0
 71
     3
 72
     8
 73
     4
 74
     0
 42
0.000000001
 43
0.0000001
 40
0.0
 40
0.0
 40
0.0
 40
0.0
 40
1.0
 40
1.0
 40
1.0
 40
1.0
 10
322.906
 20
378.382
 30
0.0
 10
323.526
 20
378.682
 30
0.0
 10
323.572
 20
378.753
 30
0.0
 10
323.296
 20
378.982
 30
0.0
  0
SPLINE
  5
280
330
1F
100
AcDbEntity
  8
0
 62
     0
100
AcDbSpline
 70
     0
 71
     3
 72
     8
 73
     4
 74
     0
 42
0.000000001
 43
0.0000001
 40
0.0
 40
0.0
 40
0.0
 40
0.0
 40
1.0
 40
1.0
 40
1.0
 40
1.0
 10
323.296
 20
378.982
 30
0.0
 10
323.153
 20
379.102
 30
0.0
 10
322.996
 20
379.081
 30
0.0
 10
322.555
 20
378.887
 30
0.0
  0
SPLINE
  5
281
330
1F
100
AcDbEntity
  8
0
 62
     0
100
AcDbSpline
 70
     0
 71
     3
 72
     8
 73
     4
 74
     0
 42
0.000000001
 43
0.0000001
 40
0.0
 40
0.0
 40
0.0
 40
0.0
 40
1.0
 40
1.0
 40
1.0
 40
1.0
 10
322.555
 20
378.887
 30
0.0
 10
321.959
 20
378.622
 30
0.0
 10
321.772
 20
378.435
 30
0.0
 10
321.899
 20
378.231
 30
0.0
  0
SPLINE
  5
282
330
1F
100
AcDbEntity
  8
0
 62
     0
100
AcDbSpline
 70
     0
 71
     3
 72
     8
 73
     4
 74
     0
 42
0.000000001
 43
0.0000001
 40
0.0
 40
0.0
 40
0.0
 40
0.0
 40
1.0
 40
1.0
 40
1.0
 40
1.0
 10
321.899
 20
378.231
 30
0.0
 10
322.017
 20
378.04
 30
0.0
 10
322.278
 20
378.079
 30
0.0
 10
322.906
 20
378.382
 30
0.0
  0
LINE
  5
283
330
1F
100
AcDbEntity
  8
0
 62
     0
100
AcDbLine
 10
322.906
 20
378.382
 30
0.0
 11
322.906
 21
378.382
 31
0.0
  0
SPLINE
  5
284
330
1F
100
AcDbEntity
  8
0
 62
     0
100
AcDbSpline
 70
     0
 71
     3
 72
     8
 73
     4
 74
     0
 42
0.000000001
 43
0.0000001
 40
0.0
 40
0.0
 40
0.0
 40
0.0
 40
1.0
 40
1.0
 40
1.0
 40
1.0
 10
321.334
 20
379.434
 30
0.0
 10
321.817
 20
379.677
 30
0.0
 10
322.214
 20
379.92
 30
0.0
 10
322.214
 20
379.977
 30
0.0
  0
SPLINE
  5
285
330
1F
100
AcDbEntity
  8
0
 62
     0
100
AcDbSpline
 70
     0
 71
     3
 72
     8
 73
     4
 74
     0
 42
0.000000001
 43
0.0000001
 40
0.0
 40
0.0
 40
0.0
 40
0.0
 40
1.0
 40
1.0
 40
1.0
 40
1.0
 10
322.214
 20
379.977
 30
0.0
 10
322.214
 20
380.178
 30
0.0
 10
321.902
 20
380.379
 30
0.0
 10
321.589
 20
380.376
 30
0.0
  0
SPLINE
  5
286
330
1F
100
AcDbEntity
  8
0
 62
     0
100
AcDbSpline
 70
     0
 71
     3
 72
     8
 73
     4
 74
     0
 42
0.000000001
 43
0.0000001
 40
0.0
 40
0.0
 40
0.0
 40
0.0
 40
1.0
 40
1.0
 40
1.0
 40
1.0
 10
321.589
 20
380.376
 30
0.0
 10
321.227
 20
380.372
 30
0.0
 10
320.045
 20
379.762
 30
0.0
 10
319.975
 20
379.539
 30
0.0
  0
SPLINE
  5
287
330
1F
100
AcDbEntity
  8
0
 62
     0
100
AcDbSpline
 70
     0
 71
     3
 72
     8
 73
     4
 74
     0
 42
0.000000001
 43
0.0000001
 40
0.0
 40
0.0
 40
0.0
 40
0.0
 40
1.0
 40
1.0
 40
1.0
 40
1.0
 10
319.975
 20
379.539
 30
0.0
 10
319.933
 20
379.413
 30
0.0
 10
320.255
 20
378.989
 30
0.0
 10
320.394
 20
378.989
 30
0.0
  0
SPLINE
  5
288
330
1F
100
AcDbEntity
  8
0
 62
     0
100
AcDbSpline
 70
     0
 71
     3
 72
     8
 73
     4
 74
     0
 42
0.000000001
 43
0.0000001
 40
0.0
 40
0.0
 40
0.0
 40
0.0
 40
1.0
 40
1.0
 40
1.0
 40
1.0
 10
320.394
 20
378.989
 30
0.0
 10
320.426
 20
378.989
 30
0.0
 10
320.849
 20
379.187
 30
0.0
 10
321.334
 20
379.434
 30
0.0
  0
LINE
  5
289
330
1F
100
AcDbEntity
  8
0
 62
     0
100
AcDbLine
 10
321.334
 20
379.434
 30
0.0
 11
321.334
 21
379.434
 31
0.0
  0
SPLINE
  5
28A
330
1F
100
AcDbEntity
  8
0
 62
     0
100
AcDbSpline
 70
     0
 71
     3
 72
     8
 73
     4
 74
     0
 42
0.000000001
 43
0.0000001
 40
0.0
 40
0.0
 40
0.0
 40
0.0
 40
1.0
 40
1.0
 40
1.0
 40
1.0
 10
319.723
 20
380.52
 30
0.0
 10
320.825
 20
381.071
 30
0.0
 10
320.876
 20
381.123
 30
0.0
 10
320.619
 20
381.409
 30
0.0
  0
SPLINE
  5
28B
330
1F
100
AcDbEntity
  8
0
 62
     0
100
AcDbSpline
 70
     0
 71
     3
 72
     8
 73
     4
 74
     0
 42
0.000000001
 43
0.0000001
 40
0.0
 40
0.0
 40
0.0
 40
0.0
 40
1.0
 40
1.0
 40
1.0
 40
1.0
 10
320.619
 20
381.409
 30
0.0
 10
320.319
 20
381.737
 30
0.0
 10
319.923
 20
381.698
 30
0.0
 10
319.052
 20
381.261
 30
0.0
  0
SPLINE
  5
28C
330
1F
100
AcDbEntity
  8
0
 62
     0
100
AcDbSpline
 70
     0
 71
     3
 72
     8
 73
     4
 74
     0
 42
0.000000001
 43
0.0000001
 40
0.0
 40
0.0
 40
0.0
 40
0.0
 40
1.0
 40
1.0
 40
1.0
 40
1.0
 10
319.052
 20
381.261
 30
0.0
 10
318.291
 20
380.877
 30
0.0
 10
318.123
 20
380.605
 30
0.0
 10
318.449
 20
380.277
 30
0.0
  0
SPLINE
  5
28D
330
1F
100
AcDbEntity
  8
0
 62
     0
100
AcDbSpline
 70
     0
 71
     3
 72
     8
 73
     4
 74
     0
 42
0.000000001
 43
0.0000001
 40
0.0
 40
0.0
 40
0.0
 40
0.0
 40
1.0
 40
1.0
 40
1.0
 40
1.0
 10
318.449
 20
380.277
 30
0.0
 10
318.675
 20
380.051
 30
0.0
 10
318.859
 20
380.086
 30
0.0
 10
319.723
 20
380.52
 30
0.0
  0
LINE
  5
28E
330
1F
100
AcDbEntity
  8
0
 62
     0
100
AcDbLine
 10
319.723
 20
380.52
 30
0.0
 11
319.723
 21
380.52
 31
0.0
  0
SPLINE
  5
28F
330
1F
100
AcDbEntity
  8
0
 62
     0
100
AcDbSpline
 70
     0
 71
     3
 72
     8
 73
     4
 74
     0
 42
0.000000001
 43
0.0000001
 40
0.0
 40
0.0
 40
0.0
 40
0.0
 40
1.0
 40
1.0
 40
1.0
 40
1.0
 10
322.832
 20
387.703
 30
0.0
 10
323.064
 20
387.77
 30
0.0
 10
323.402
 20
387.918
 30
0.0
 10
323.581
 20
388.034
 30
0.0
  0
LINE
  5
290
330
1F
100
AcDbEntity
  8
0
 62
     0
100
AcDbLine
 10
323.581
 20
388.034
 30
0.0
 11
323.906
 21
388.25
 31
0.0
  0
LINE
  5
291
330
1F
100
AcDbEntity
  8
0
 62
     0
100
AcDbLine
 10
323.906
 20
388.25
 30
0.0
 11
323.476
 21
388.609
 31
0.0
  0
SPLINE
  5
292
330
1F
100
AcDbEntity
  8
0
 62
     0
100
AcDbSpline
 70
     0
 71
     3
 72
     8
 73
     4
 74
     0
 42
0.000000001
 43
0.0000001
 40
0.0
 40
0.0
 40
0.0
 40
0.0
 40
1.0
 40
1.0
 40
1.0
 40
1.0
 10
323.476
 20
388.609
 30
0.0
 10
323.24
 20
388.807
 30
0.0
 10
322.956
 20
388.969
 30
0.0
 10
322.847
 20
388.969
 30
0.0
  0
SPLINE
  5
293
330
1F
100
AcDbEntity
  8
0
 62
     0
100
AcDbSpline
 70
     0
 71
     3
 72
     8
 73
     4
 74
     0
 42
0.000000001
 43
0.0000001
 40
0.0
 40
0.0
 40
0.0
 40
0.0
 40
1.0
 40
1.0
 40
1.0
 40
1.0
 10
322.847
 20
388.969
 30
0.0
 10
322.738
 20
388.969
 30
0.0
 10
322.34
 20
388.655
 30
0.0
 10
321.962
 20
388.274
 30
0.0
  0
LINE
  5
294
330
1F
100
AcDbEntity
  8
0
 62
     0
100
AcDbLine
 10
321.962
 20
388.274
 30
0.0
 11
321.276
 21
387.579
 31
0.0
  0
LINE
  5
295
330
1F
100
AcDbEntity
  8
0
 62
     0
100
AcDbLine
 10
321.276
 20
387.579
 30
0.0
 11
321.841
 21
387.579
 31
0.0
  0
SPLINE
  5
296
330
1F
100
AcDbEntity
  8
0
 62
     0
100
AcDbSpline
 70
     0
 71
     3
 72
     8
 73
     4
 74
     0
 42
0.000000001
 43
0.0000001
 40
0.0
 40
0.0
 40
0.0
 40
0.0
 40
1.0
 40
1.0
 40
1.0
 40
1.0
 10
321.841
 20
387.579
 30
0.0
 10
322.151
 20
387.579
 30
0.0
 10
322.597
 20
387.636
 30
0.0
 10
322.832
 20
387.703
 30
0.0
  0
LINE
  5
297
330
1F
100
AcDbEntity
  8
0
 62
     0
100
AcDbLine
 10
322.832
 20
387.703
 30
0.0
 11
322.832
 21
387.703
 31
0.0
  0
SPLINE
  5
298
330
1F
100
AcDbEntity
  8
0
 62
     0
100
AcDbSpline
 70
     0
 71
     3
 72
     8
 73
     4
 74
     0
 42
0.000000001
 43
0.0000001
 40
0.0
 40
0.0
 40
0.0
 40
0.0
 40
1.0
 40
1.0
 40
1.0
 40
1.0
 10
321.703
 20
388.775
 30
0.0
 10
322.493
 20
389.576
 30
0.0
 10
322.465
 20
389.71
 30
0.0
 10
321.436
 20
390.052
 30
0.0
  0
SPLINE
  5
299
330
1F
100
AcDbEntity
  8
0
 62
     0
100
AcDbSpline
 70
     0
 71
     3
 72
     8
 73
     4
 74
     0
 42
0.000000001
 43
0.0000001
 40
0.0
 40
0.0
 40
0.0
 40
0.0
 40
1.0
 40
1.0
 40
1.0
 40
1.0
 10
321.436
 20
390.052
 30
0.0
 10
320.632
 20
390.317
 30
0.0
 10
318.717
 20
390.327
 30
0.0
 10
318.455
 20
390.066
 30
0.0
  0
SPLINE
  5
29A
330
1F
100
AcDbEntity
  8
0
 62
     0
100
AcDbSpline
 70
     0
 71
     3
 72
     8
 73
     4
 74
     0
 42
0.000000001
 43
0.0000001
 40
0.0
 40
0.0
 40
0.0
 40
0.0
 40
1.0
 40
1.0
 40
1.0
 40
1.0
 10
318.455
 20
390.066
 30
0.0
 10
318.303
 20
389.915
 30
0.0
 10
318.456
 20
389.759
 30
0.0
 10
319.518
 20
388.987
 30
0.0
  0
SPLINE
  5
29B
330
1F
100
AcDbEntity
  8
0
 62
     0
100
AcDbSpline
 70
     0
 71
     3
 72
     8
 73
     4
 74
     0
 42
0.000000001
 43
0.0000001
 40
0.0
 40
0.0
 40
0.0
 40
0.0
 40
1.0
 40
1.0
 40
1.0
 40
1.0
 10
319.518
 20
388.987
 30
0.0
 10
320.199
 20
388.489
 30
0.0
 10
320.817
 20
388.084
 30
0.0
 10
320.89
 20
388.084
 30
0.0
  0
SPLINE
  5
29C
330
1F
100
AcDbEntity
  8
0
 62
     0
100
AcDbSpline
 70
     0
 71
     3
 72
     8
 73
     4
 74
     0
 42
0.000000001
 43
0.0000001
 40
0.0
 40
0.0
 40
0.0
 40
0.0
 40
1.0
 40
1.0
 40
1.0
 40
1.0
 10
320.89
 20
388.084
 30
0.0
 10
320.963
 20
388.084
 30
0.0
 10
321.328
 20
388.394
 30
0.0
 10
321.703
 20
388.775
 30
0.0
  0
LINE
  5
29D
330
1F
100
AcDbEntity
  8
0
 62
     0
100
AcDbLine
 10
321.703
 20
388.775
 30
0.0
 11
321.703
 21
388.775
 31
0.0
  0
SPLINE
  5
29E
330
1F
100
AcDbEntity
  8
0
 62
     0
100
AcDbSpline
 70
     0
 71
     3
 72
     8
 73
     4
 74
     0
 42
0.000000001
 43
0.0000001
 40
0.0
 40
0.0
 40
0.0
 40
0.0
 40
1.0
 40
1.0
 40
1.0
 40
1.0
 10
279.006
 20
376.707
 30
0.0
 10
279.006
 20
376.781
 30
0.0
 10
279.134
 20
376.844
 30
0.0
 10
279.29
 20
376.848
 30
0.0
  0
LINE
  5
29F
330
1F
100
AcDbEntity
  8
0
 62
     0
100
AcDbLine
 10
279.29
 20
376.848
 30
0.0
 11
279.574
 21
376.858
 31
0.0
  0
LINE
  5
2A0
330
1F
100
AcDbEntity
  8
0
 62
     0
100
AcDbLine
 10
279.574
 20
376.858
 30
0.0
 11
279.284
 21
376.996
 31
0.0
  0
SPLINE
  5
2A1
330
1F
100
AcDbEntity
  8
0
 62
     0
100
AcDbSpline
 70
     0
 71
     3
 72
     8
 73
     4
 74
     0
 42
0.000000001
 43
0.0000001
 40
0.0
 40
0.0
 40
0.0
 40
0.0
 40
1.0
 40
1.0
 40
1.0
 40
1.0
 10
279.284
 20
376.996
 30
0.0
 10
279.126
 20
377.074
 30
0.0
 10
279.013
 20
377.229
 30
0.0
 10
279.033
 20
377.335
 30
0.0
  0
SPLINE
  5
2A2
330
1F
100
AcDbEntity
  8
0
 62
     0
100
AcDbSpline
 70
     0
 71
     3
 72
     8
 73
     4
 74
     0
 42
0.000000001
 43
0.0000001
 40
0.0
 40
0.0
 40
0.0
 40
0.0
 40
1.0
 40
1.0
 40
1.0
 40
1.0
 10
279.033
 20
377.335
 30
0.0
 10
279.076
 20
377.56
 30
0.0
 10
279.637
 20
377.694
 30
0.0
 10
279.637
 20
377.483
 30
0.0
  0
SPLINE
  5
2A3
330
1F
100
AcDbEntity
  8
0
 62
     0
100
AcDbSpline
 70
     0
 71
     3
 72
     8
 73
     4
 74
     0
 42
0.000000001
 43
0.0000001
 40
0.0
 40
0.0
 40
0.0
 40
0.0
 40
1.0
 40
1.0
 40
1.0
 40
1.0
 10
279.637
 20
377.483
 30
0.0
 10
279.637
 20
377.409
 30
0.0
 10
279.538
 20
377.342
 30
0.0
 10
279.417
 20
377.338
 30
0.0
  0
SPLINE
  5
2A4
330
1F
100
AcDbEntity
  8
0
 62
     0
100
AcDbSpline
 70
     0
 71
     3
 72
     8
 73
     4
 74
     0
 42
0.000000001
 43
0.0000001
 40
0.0
 40
0.0
 40
0.0
 40
0.0
 40
1.0
 40
1.0
 40
1.0
 40
1.0
 10
279.417
 20
377.338
 30
0.0
 10
279.251
 20
377.335
 30
0.0
 10
279.271
 20
377.299
 30
0.0
 10
279.488
 20
377.211
 30
0.0
  0
SPLINE
  5
2A5
330
1F
100
AcDbEntity
  8
0
 62
     0
100
AcDbSpline
 70
     0
 71
     3
 72
     8
 73
     4
 74
     0
 42
0.000000001
 43
0.0000001
 40
0.0
 40
0.0
 40
0.0
 40
0.0
 40
1.0
 40
1.0
 40
1.0
 40
1.0
 10
279.488
 20
377.211
 30
0.0
 10
279.891
 20
377.052
 30
0.0
 10
279.803
 20
376.664
 30
0.0
 10
279.352
 20
376.611
 30
0.0
  0
SPLINE
  5
2A6
330
1F
100
AcDbEntity
  8
0
 62
     0
100
AcDbSpline
 70
     0
 71
     3
 72
     8
 73
     4
 74
     0
 42
0.000000001
 43
0.0000001
 40
0.0
 40
0.0
 40
0.0
 40
0.0
 40
1.0
 40
1.0
 40
1.0
 40
1.0
 10
279.352
 20
376.611
 30
0.0
 10
279.162
 20
376.59
 30
0.0
 10
279.006
 20
376.633
 30
0.0
 10
279.006
 20
376.707
 30
0.0
  0
LINE
  5
2A7
330
1F
100
AcDbEntity
  8
0
 62
     0
100
AcDbLine
 10
279.006
 20
376.707
 30
0.0
 11
279.006
 21
376.707
 31
0.0
  0
SPLINE
  5
2A8
330
1F
100
AcDbEntity
  8
0
 62
     0
100
AcDbSpline
 70
     0
 71
     3
 72
     8
 73
     4
 74
     0
 42
0.000000001
 43
0.0000001
 40
0.0
 40
0.0
 40
0.0
 40
0.0
 40
1.0
 40
1.0
 40
1.0
 40
1.0
 10
280.647
 20
377.102
 30
0.0
 10
280.647
 20
377.589
 30
0.0
 10
280.668
 20
377.613
 30
0.0
 10
280.995
 20
377.575
 30
0.0
  0
SPLINE
  5
2A9
330
1F
100
AcDbEntity
  8
0
 62
     0
100
AcDbSpline
 70
     0
 71
     3
 72
     8
 73
     4
 74
     0
 42
0.000000001
 43
0.0000001
 40
0.0
 40
0.0
 40
0.0
 40
0.0
 40
1.0
 40
1.0
 40
1.0
 40
1.0
 10
280.995
 20
377.575
 30
0.0
 10
281.427
 20
377.525
 30
0.0
 10
281.553
 20
377.109
 30
0.0
 10
281.164
 20
377.007
 30
0.0
  0
SPLINE
  5
2AA
330
1F
100
AcDbEntity
  8
0
 62
     0
100
AcDbSpline
 70
     0
 71
     3
 72
     8
 73
     4
 74
     0
 42
0.000000001
 43
0.0000001
 40
0.0
 40
0.0
 40
0.0
 40
0.0
 40
1.0
 40
1.0
 40
1.0
 40
1.0
 10
281.164
 20
377.007
 30
0.0
 10
281.019
 20
376.968
 30
0.0
 10
280.901
 20
376.858
 30
0.0
 10
280.901
 20
376.763
 30
0.0
  0
SPLINE
  5
2AB
330
1F
100
AcDbEntity
  8
0
 62
     0
100
AcDbSpline
 70
     0
 71
     3
 72
     8
 73
     4
 74
     0
 42
0.000000001
 43
0.0000001
 40
0.0
 40
0.0
 40
0.0
 40
0.0
 40
1.0
 40
1.0
 40
1.0
 40
1.0
 10
280.901
 20
376.763
 30
0.0
 10
280.901
 20
376.668
 30
0.0
 10
280.844
 20
376.587
 30
0.0
 10
280.774
 20
376.587
 30
0.0
  0
SPLINE
  5
2AC
330
1F
100
AcDbEntity
  8
0
 62
     0
100
AcDbSpline
 70
     0
 71
     3
 72
     8
 73
     4
 74
     0
 42
0.000000001
 43
0.0000001
 40
0.0
 40
0.0
 40
0.0
 40
0.0
 40
1.0
 40
1.0
 40
1.0
 40
1.0
 10
280.774
 20
376.587
 30
0.0
 10
280.705
 20
376.587
 30
0.0
 10
280.647
 20
376.82
 30
0.0
 10
280.647
 20
377.102
 30
0.0
  0
LINE
  5
2AD
330
1F
100
AcDbEntity
  8
0
 62
     0
100
AcDbLine
 10
280.647
 20
377.102
 30
0.0
 11
280.647
 21
377.102
 31
0.0
  0
SPLINE
  5
2AE
330
1F
100
AcDbEntity
  8
0
 62
     0
100
AcDbSpline
 70
     0
 71
     3
 72
     8
 73
     4
 74
     0
 42
0.000000001
 43
0.0000001
 40
0.0
 40
0.0
 40
0.0
 40
0.0
 40
1.0
 40
1.0
 40
1.0
 40
1.0
 10
282.422
 20
376.774
 30
0.0
 10
282.086
 20
377.176
 30
0.0
 10
282.579
 20
377.797
 30
0.0
 10
283.017
 20
377.522
 30
0.0
  0
SPLINE
  5
2AF
330
1F
100
AcDbEntity
  8
0
 62
     0
100
AcDbSpline
 70
     0
 71
     3
 72
     8
 73
     4
 74
     0
 42
0.000000001
 43
0.0000001
 40
0.0
 40
0.0
 40
0.0
 40
0.0
 40
1.0
 40
1.0
 40
1.0
 40
1.0
 10
283.017
 20
377.522
 30
0.0
 10
283.454
 20
377.246
 30
0.0
 10
283.299
 20
376.587
 30
0.0
 10
282.795
 20
376.587
 30
0.0
  0
SPLINE
  5
2B0
330
1F
100
AcDbEntity
  8
0
 62
     0
100
AcDbSpline
 70
     0
 71
     3
 72
     8
 73
     4
 74
     0
 42
0.000000001
 43
0.0000001
 40
0.0
 40
0.0
 40
0.0
 40
0.0
 40
1.0
 40
1.0
 40
1.0
 40
1.0
 10
282.795
 20
376.587
 30
0.0
 10
282.674
 20
376.587
 30
0.0
 10
282.506
 20
376.671
 30
0.0
 10
282.422
 20
376.774
 30
0.0
  0
LINE
  5
2B1
330
1F
100
AcDbEntity
  8
0
 62
     0
100
AcDbLine
 10
282.422
 20
376.774
 30
0.0
 11
282.422
 21
376.774
 31
0.0
  0
SPLINE
  5
2B2
330
1F
100
AcDbEntity
  8
0
 62
     0
100
AcDbSpline
 70
     0
 71
     3
 72
     8
 73
     4
 74
     0
 42
0.000000001
 43
0.0000001
 40
0.0
 40
0.0
 40
0.0
 40
0.0
 40
1.0
 40
1.0
 40
1.0
 40
1.0
 10
282.986
 20
377.095
 30
0.0
 10
282.986
 20
377.197
 30
0.0
 10
282.887
 20
377.299
 30
0.0
 10
282.764
 20
377.321
 30
0.0
  0
SPLINE
  5
2B3
330
1F
100
AcDbEntity
  8
0
 62
     0
100
AcDbSpline
 70
     0
 71
     3
 72
     8
 73
     4
 74
     0
 42
0.000000001
 43
0.0000001
 40
0.0
 40
0.0
 40
0.0
 40
0.0
 40
1.0
 40
1.0
 40
1.0
 40
1.0
 10
282.764
 20
377.321
 30
0.0
 10
282.61
 20
377.352
 30
0.0
 10
282.543
 20
377.285
 30
0.0
 10
282.543
 20
377.095
 30
0.0
  0
SPLINE
  5
2B4
330
1F
100
AcDbEntity
  8
0
 62
     0
100
AcDbSpline
 70
     0
 71
     3
 72
     8
 73
     4
 74
     0
 42
0.000000001
 43
0.0000001
 40
0.0
 40
0.0
 40
0.0
 40
0.0
 40
1.0
 40
1.0
 40
1.0
 40
1.0
 10
282.543
 20
377.095
 30
0.0
 10
282.543
 20
376.904
 30
0.0
 10
282.61
 20
376.834
 30
0.0
 10
282.764
 20
376.865
 30
0.0
  0
SPLINE
  5
2B5
330
1F
100
AcDbEntity
  8
0
 62
     0
100
AcDbSpline
 70
     0
 71
     3
 72
     8
 73
     4
 74
     0
 42
0.000000001
 43
0.0000001
 40
0.0
 40
0.0
 40
0.0
 40
0.0
 40
1.0
 40
1.0
 40
1.0
 40
1.0
 10
282.764
 20
376.865
 30
0.0
 10
282.887
 20
376.887
 30
0.0
 10
282.986
 20
376.992
 30
0.0
 10
282.986
 20
377.095
 30
0.0
  0
LINE
  5
2B6
330
1F
100
AcDbEntity
  8
0
 62
     0
100
AcDbLine
 10
282.986
 20
377.095
 30
0.0
 11
282.986
 21
377.095
 31
0.0
  0
SPLINE
  5
2B7
330
1F
100
AcDbEntity
  8
0
 62
     0
100
AcDbSpline
 70
     0
 71
     3
 72
     8
 73
     4
 74
     0
 42
0.000000001
 43
0.0000001
 40
0.0
 40
0.0
 40
0.0
 40
0.0
 40
1.0
 40
1.0
 40
1.0
 40
1.0
 10
284.186
 20
377.102
 30
0.0
 10
284.186
 20
377.589
 30
0.0
 10
284.205
 20
377.613
 30
0.0
 10
284.533
 20
377.575
 30
0.0
  0
SPLINE
  5
2B8
330
1F
100
AcDbEntity
  8
0
 62
     0
100
AcDbSpline
 70
     0
 71
     3
 72
     8
 73
     4
 74
     0
 42
0.000000001
 43
0.0000001
 40
0.0
 40
0.0
 40
0.0
 40
0.0
 40
1.0
 40
1.0
 40
1.0
 40
1.0
 10
284.533
 20
377.575
 30
0.0
 10
284.838
 20
377.539
 30
0.0
 10
284.883
 20
377.476
 30
0.0
 10
284.907
 20
377.063
 30
0.0
  0
SPLINE
  5
2B9
330
1F
100
AcDbEntity
  8
0
 62
     0
100
AcDbSpline
 70
     0
 71
     3
 72
     8
 73
     4
 74
     0
 42
0.000000001
 43
0.0000001
 40
0.0
 40
0.0
 40
0.0
 40
0.0
 40
1.0
 40
1.0
 40
1.0
 40
1.0
 10
284.907
 20
377.063
 30
0.0
 10
284.935
 20
376.537
 30
0.0
 10
284.865
 20
376.477
 30
0.0
 10
284.614
 20
376.809
 30
0.0
  0
SPLINE
  5
2BA
330
1F
100
AcDbEntity
  8
0
 62
     0
100
AcDbSpline
 70
     0
 71
     3
 72
     8
 73
     4
 74
     0
 42
0.000000001
 43
0.0000001
 40
0.0
 40
0.0
 40
0.0
 40
0.0
 40
1.0
 40
1.0
 40
1.0
 40
1.0
 10
284.614
 20
376.809
 30
0.0
 10
284.455
 20
377.021
 30
0.0
 10
284.446
 20
377.021
 30
0.0
 10
284.442
 20
376.809
 30
0.0
  0
SPLINE
  5
2BB
330
1F
100
AcDbEntity
  8
0
 62
     0
100
AcDbSpline
 70
     0
 71
     3
 72
     8
 73
     4
 74
     0
 42
0.000000001
 43
0.0000001
 40
0.0
 40
0.0
 40
0.0
 40
0.0
 40
1.0
 40
1.0
 40
1.0
 40
1.0
 10
284.442
 20
376.809
 30
0.0
 10
284.434
 20
376.336
 30
0.0
 10
284.186
 20
376.618
 30
0.0
 10
284.186
 20
377.102
 30
0.0
  0
LINE
  5
2BC
330
1F
100
AcDbEntity
  8
0
 62
     0
100
AcDbLine
 10
284.186
 20
377.102
 30
0.0
 11
284.186
 21
377.102
 31
0.0
  0
SPLINE
  5
2BD
330
1F
100
AcDbEntity
  8
0
 62
     0
100
AcDbSpline
 70
     0
 71
     3
 72
     8
 73
     4
 74
     0
 42
0.000000001
 43
0.0000001
 40
0.0
 40
0.0
 40
0.0
 40
0.0
 40
1.0
 40
1.0
 40
1.0
 40
1.0
 10
286.081
 20
376.968
 30
0.0
 10
286.081
 20
377.176
 30
0.0
 10
286.024
 20
377.345
 30
0.0
 10
285.954
 20
377.345
 30
0.0
  0
SPLINE
  5
2BE
330
1F
100
AcDbEntity
  8
0
 62
     0
100
AcDbSpline
 70
     0
 71
     3
 72
     8
 73
     4
 74
     0
 42
0.000000001
 43
0.0000001
 40
0.0
 40
0.0
 40
0.0
 40
0.0
 40
1.0
 40
1.0
 40
1.0
 40
1.0
 10
285.954
 20
377.345
 30
0.0
 10
285.885
 20
377.345
 30
0.0
 10
285.827
 20
377.405
 30
0.0
 10
285.827
 20
377.472
 30
0.0
  0
SPLINE
  5
2BF
330
1F
100
AcDbEntity
  8
0
 62
     0
100
AcDbSpline
 70
     0
 71
     3
 72
     8
 73
     4
 74
     0
 42
0.000000001
 43
0.0000001
 40
0.0
 40
0.0
 40
0.0
 40
0.0
 40
1.0
 40
1.0
 40
1.0
 40
1.0
 10
285.827
 20
377.472
 30
0.0
 10
285.827
 20
377.543
 30
0.0
 10
285.998
 20
377.599
 30
0.0
 10
286.208
 20
377.599
 30
0.0
  0
SPLINE
  5
2C0
330
1F
100
AcDbEntity
  8
0
 62
     0
100
AcDbSpline
 70
     0
 71
     3
 72
     8
 73
     4
 74
     0
 42
0.000000001
 43
0.0000001
 40
0.0
 40
0.0
 40
0.0
 40
0.0
 40
1.0
 40
1.0
 40
1.0
 40
1.0
 10
286.208
 20
377.599
 30
0.0
 10
286.416
 20
377.599
 30
0.0
 10
286.586
 20
377.543
 30
0.0
 10
286.586
 20
377.472
 30
0.0
  0
SPLINE
  5
2C1
330
1F
100
AcDbEntity
  8
0
 62
     0
100
AcDbSpline
 70
     0
 71
     3
 72
     8
 73
     4
 74
     0
 42
0.000000001
 43
0.0000001
 40
0.0
 40
0.0
 40
0.0
 40
0.0
 40
1.0
 40
1.0
 40
1.0
 40
1.0
 10
286.586
 20
377.472
 30
0.0
 10
286.586
 20
377.405
 30
0.0
 10
286.529
 20
377.345
 30
0.0
 10
286.46
 20
377.345
 30
0.0
  0
SPLINE
  5
2C2
330
1F
100
AcDbEntity
  8
0
 62
     0
100
AcDbSpline
 70
     0
 71
     3
 72
     8
 73
     4
 74
     0
 42
0.000000001
 43
0.0000001
 40
0.0
 40
0.0
 40
0.0
 40
0.0
 40
1.0
 40
1.0
 40
1.0
 40
1.0
 10
286.46
 20
377.345
 30
0.0
 10
286.391
 20
377.345
 30
0.0
 10
286.333
 20
377.176
 30
0.0
 10
286.333
 20
376.968
 30
0.0
  0
SPLINE
  5
2C3
330
1F
100
AcDbEntity
  8
0
 62
     0
100
AcDbSpline
 70
     0
 71
     3
 72
     8
 73
     4
 74
     0
 42
0.000000001
 43
0.0000001
 40
0.0
 40
0.0
 40
0.0
 40
0.0
 40
1.0
 40
1.0
 40
1.0
 40
1.0
 10
286.333
 20
376.968
 30
0.0
 10
286.333
 20
376.76
 30
0.0
 10
286.276
 20
376.587
 30
0.0
 10
286.208
 20
376.587
 30
0.0
  0
SPLINE
  5
2C4
330
1F
100
AcDbEntity
  8
0
 62
     0
100
AcDbSpline
 70
     0
 71
     3
 72
     8
 73
     4
 74
     0
 42
0.000000001
 43
0.0000001
 40
0.0
 40
0.0
 40
0.0
 40
0.0
 40
1.0
 40
1.0
 40
1.0
 40
1.0
 10
286.208
 20
376.587
 30
0.0
 10
286.137
 20
376.587
 30
0.0
 10
286.081
 20
376.76
 30
0.0
 10
286.081
 20
376.968
 30
0.0
  0
LINE
  5
2C5
330
1F
100
AcDbEntity
  8
0
 62
     0
100
AcDbLine
 10
286.081
 20
376.968
 30
0.0
 11
286.081
 21
376.968
 31
0.0
  0
SPLINE
  5
2C6
330
1F
100
AcDbEntity
  8
0
 62
     0
100
AcDbSpline
 70
     0
 71
     3
 72
     8
 73
     4
 74
     0
 42
0.000000001
 43
0.0000001
 40
0.0
 40
0.0
 40
0.0
 40
0.0
 40
1.0
 40
1.0
 40
1.0
 40
1.0
 10
287.47
 20
376.707
 30
0.0
 10
287.47
 20
376.781
 30
0.0
 10
287.598
 20
376.844
 30
0.0
 10
287.755
 20
376.848
 30
0.0
  0
LINE
  5
2C7
330
1F
100
AcDbEntity
  8
0
 62
     0
100
AcDbLine
 10
287.755
 20
376.848
 30
0.0
 11
288.039
 21
376.858
 31
0.0
  0
LINE
  5
2C8
330
1F
100
AcDbEntity
  8
0
 62
     0
100
AcDbLine
 10
288.039
 20
376.858
 30
0.0
 11
287.75
 21
376.996
 31
0.0
  0
SPLINE
  5
2C9
330
1F
100
AcDbEntity
  8
0
 62
     0
100
AcDbSpline
 70
     0
 71
     3
 72
     8
 73
     4
 74
     0
 42
0.000000001
 43
0.0000001
 40
0.0
 40
0.0
 40
0.0
 40
0.0
 40
1.0
 40
1.0
 40
1.0
 40
1.0
 10
287.75
 20
376.996
 30
0.0
 10
287.591
 20
377.074
 30
0.0
 10
287.477
 20
377.229
 30
0.0
 10
287.499
 20
377.335
 30
0.0
  0
SPLINE
  5
2CA
330
1F
100
AcDbEntity
  8
0
 62
     0
100
AcDbSpline
 70
     0
 71
     3
 72
     8
 73
     4
 74
     0
 42
0.000000001
 43
0.0000001
 40
0.0
 40
0.0
 40
0.0
 40
0.0
 40
1.0
 40
1.0
 40
1.0
 40
1.0
 10
287.499
 20
377.335
 30
0.0
 10
287.541
 20
377.56
 30
0.0
 10
288.102
 20
377.694
 30
0.0
 10
288.102
 20
377.483
 30
0.0
  0
SPLINE
  5
2CB
330
1F
100
AcDbEntity
  8
0
 62
     0
100
AcDbSpline
 70
     0
 71
     3
 72
     8
 73
     4
 74
     0
 42
0.000000001
 43
0.0000001
 40
0.0
 40
0.0
 40
0.0
 40
0.0
 40
1.0
 40
1.0
 40
1.0
 40
1.0
 10
288.102
 20
377.483
 30
0.0
 10
288.102
 20
377.409
 30
0.0
 10
288.003
 20
377.342
 30
0.0
 10
287.88
 20
377.338
 30
0.0
  0
SPLINE
  5
2CC
330
1F
100
AcDbEntity
  8
0
 62
     0
100
AcDbSpline
 70
     0
 71
     3
 72
     8
 73
     4
 74
     0
 42
0.000000001
 43
0.0000001
 40
0.0
 40
0.0
 40
0.0
 40
0.0
 40
1.0
 40
1.0
 40
1.0
 40
1.0
 10
287.88
 20
377.338
 30
0.0
 10
287.716
 20
377.335
 30
0.0
 10
287.734
 20
377.299
 30
0.0
 10
287.953
 20
377.211
 30
0.0
  0
SPLINE
  5
2CD
330
1F
100
AcDbEntity
  8
0
 62
     0
100
AcDbSpline
 70
     0
 71
     3
 72
     8
 73
     4
 74
     0
 42
0.000000001
 43
0.0000001
 40
0.0
 40
0.0
 40
0.0
 40
0.0
 40
1.0
 40
1.0
 40
1.0
 40
1.0
 10
287.953
 20
377.211
 30
0.0
 10
288.355
 20
377.052
 30
0.0
 10
288.266
 20
376.664
 30
0.0
 10
287.817
 20
376.611
 30
0.0
  0
SPLINE
  5
2CE
330
1F
100
AcDbEntity
  8
0
 62
     0
100
AcDbSpline
 70
     0
 71
     3
 72
     8
 73
     4
 74
     0
 42
0.000000001
 43
0.0000001
 40
0.0
 40
0.0
 40
0.0
 40
0.0
 40
1.0
 40
1.0
 40
1.0
 40
1.0
 10
287.817
 20
376.611
 30
0.0
 10
287.627
 20
376.59
 30
0.0
 10
287.47
 20
376.633
 30
0.0
 10
287.47
 20
376.707
 30
0.0
  0
LINE
  5
2CF
330
1F
100
AcDbEntity
  8
0
 62
     0
100
AcDbLine
 10
287.47
 20
376.707
 30
0.0
 11
287.47
 21
376.707
 31
0.0
  0
SPLINE
  5
2D0
330
1F
100
AcDbEntity
  8
0
 62
     0
100
AcDbSpline
 70
     0
 71
     3
 72
     8
 73
     4
 74
     0
 42
0.000000001
 43
0.0000001
 40
0.0
 40
0.0
 40
0.0
 40
0.0
 40
1.0
 40
1.0
 40
1.0
 40
1.0
 10
290.178
 20
376.756
 30
0.0
 10
290.142
 20
376.848
 30
0.0
 10
290.172
 20
377.081
 30
0.0
 10
290.245
 20
377.271
 30
0.0
  0
SPLINE
  5
2D1
330
1F
100
AcDbEntity
  8
0
 62
     0
100
AcDbSpline
 70
     0
 71
     3
 72
     8
 73
     4
 74
     0
 42
0.000000001
 43
0.0000001
 40
0.0
 40
0.0
 40
0.0
 40
0.0
 40
1.0
 40
1.0
 40
1.0
 40
1.0
 10
290.245
 20
377.271
 30
0.0
 10
290.415
 20
377.716
 30
0.0
 10
290.834
 20
377.673
 30
0.0
 10
290.787
 20
377.215
 30
0.0
  0
SPLINE
  5
2D2
330
1F
100
AcDbEntity
  8
0
 62
     0
100
AcDbSpline
 70
     0
 71
     3
 72
     8
 73
     4
 74
     0
 42
0.000000001
 43
0.0000001
 40
0.0
 40
0.0
 40
0.0
 40
0.0
 40
1.0
 40
1.0
 40
1.0
 40
1.0
 10
290.787
 20
377.215
 30
0.0
 10
290.762
 20
376.971
 30
0.0
 10
290.781
 20
376.943
 30
0.0
 10
290.879
 20
377.095
 30
0.0
  0
SPLINE
  5
2D3
330
1F
100
AcDbEntity
  8
0
 62
     0
100
AcDbSpline
 70
     0
 71
     3
 72
     8
 73
     4
 74
     0
 42
0.000000001
 43
0.0000001
 40
0.0
 40
0.0
 40
0.0
 40
0.0
 40
1.0
 40
1.0
 40
1.0
 40
1.0
 10
290.879
 20
377.095
 30
0.0
 10
290.948
 20
377.197
 30
0.0
 10
291.01
 20
377.254
 30
0.0
 10
291.017
 20
377.222
 30
0.0
  0
SPLINE
  5
2D4
330
1F
100
AcDbEntity
  8
0
 62
     0
100
AcDbSpline
 70
     0
 71
     3
 72
     8
 73
     4
 74
     0
 42
0.000000001
 43
0.0000001
 40
0.0
 40
0.0
 40
0.0
 40
0.0
 40
1.0
 40
1.0
 40
1.0
 40
1.0
 10
291.017
 20
377.222
 30
0.0
 10
291.127
 20
376.657
 30
0.0
 10
291.087
 20
376.587
 30
0.0
 10
290.667
 20
376.587
 30
0.0
  0
SPLINE
  5
2D5
330
1F
100
AcDbEntity
  8
0
 62
     0
100
AcDbSpline
 70
     0
 71
     3
 72
     8
 73
     4
 74
     0
 42
0.000000001
 43
0.0000001
 40
0.0
 40
0.0
 40
0.0
 40
0.0
 40
1.0
 40
1.0
 40
1.0
 40
1.0
 10
290.667
 20
376.587
 30
0.0
 10
290.43
 20
376.587
 30
0.0
 10
290.213
 20
376.661
 30
0.0
 10
290.178
 20
376.756
 30
0.0
  0
LINE
  5
2D6
330
1F
100
AcDbEntity
  8
0
 62
     0
100
AcDbLine
 10
290.178
 20
376.756
 30
0.0
 11
290.178
 21
376.756
 31
0.0
  0
SPLINE
  5
2D7
330
1F
100
AcDbEntity
  8
0
 62
     0
100
AcDbSpline
 70
     0
 71
     3
 72
     8
 73
     4
 74
     0
 42
0.000000001
 43
0.0000001
 40
0.0
 40
0.0
 40
0.0
 40
0.0
 40
1.0
 40
1.0
 40
1.0
 40
1.0
 10
293.283
 20
376.968
 30
0.0
 10
293.283
 20
377.176
 30
0.0
 10
293.226
 20
377.345
 30
0.0
 10
293.156
 20
377.345
 30
0.0
  0
SPLINE
  5
2D8
330
1F
100
AcDbEntity
  8
0
 62
     0
100
AcDbSpline
 70
     0
 71
     3
 72
     8
 73
     4
 74
     0
 42
0.000000001
 43
0.0000001
 40
0.0
 40
0.0
 40
0.0
 40
0.0
 40
1.0
 40
1.0
 40
1.0
 40
1.0
 10
293.156
 20
377.345
 30
0.0
 10
293.087
 20
377.345
 30
0.0
 10
293.029
 20
377.405
 30
0.0
 10
293.029
 20
377.472
 30
0.0
  0
SPLINE
  5
2D9
330
1F
100
AcDbEntity
  8
0
 62
     0
100
AcDbSpline
 70
     0
 71
     3
 72
     8
 73
     4
 74
     0
 42
0.000000001
 43
0.0000001
 40
0.0
 40
0.0
 40
0.0
 40
0.0
 40
1.0
 40
1.0
 40
1.0
 40
1.0
 10
293.029
 20
377.472
 30
0.0
 10
293.029
 20
377.543
 30
0.0
 10
293.2
 20
377.599
 30
0.0
 10
293.408
 20
377.599
 30
0.0
  0
SPLINE
  5
2DA
330
1F
100
AcDbEntity
  8
0
 62
     0
100
AcDbSpline
 70
     0
 71
     3
 72
     8
 73
     4
 74
     0
 42
0.000000001
 43
0.0000001
 40
0.0
 40
0.0
 40
0.0
 40
0.0
 40
1.0
 40
1.0
 40
1.0
 40
1.0
 10
293.408
 20
377.599
 30
0.0
 10
293.617
 20
377.599
 30
0.0
 10
293.787
 20
377.543
 30
0.0
 10
293.787
 20
377.472
 30
0.0
  0
SPLINE
  5
2DB
330
1F
100
AcDbEntity
  8
0
 62
     0
100
AcDbSpline
 70
     0
 71
     3
 72
     8
 73
     4
 74
     0
 42
0.000000001
 43
0.0000001
 40
0.0
 40
0.0
 40
0.0
 40
0.0
 40
1.0
 40
1.0
 40
1.0
 40
1.0
 10
293.787
 20
377.472
 30
0.0
 10
293.787
 20
377.405
 30
0.0
 10
293.73
 20
377.345
 30
0.0
 10
293.661
 20
377.345
 30
0.0
  0
SPLINE
  5
2DC
330
1F
100
AcDbEntity
  8
0
 62
     0
100
AcDbSpline
 70
     0
 71
     3
 72
     8
 73
     4
 74
     0
 42
0.000000001
 43
0.0000001
 40
0.0
 40
0.0
 40
0.0
 40
0.0
 40
1.0
 40
1.0
 40
1.0
 40
1.0
 10
293.661
 20
377.345
 30
0.0
 10
293.592
 20
377.345
 30
0.0
 10
293.534
 20
377.176
 30
0.0
 10
293.534
 20
376.968
 30
0.0
  0
SPLINE
  5
2DD
330
1F
100
AcDbEntity
  8
0
 62
     0
100
AcDbSpline
 70
     0
 71
     3
 72
     8
 73
     4
 74
     0
 42
0.000000001
 43
0.0000001
 40
0.0
 40
0.0
 40
0.0
 40
0.0
 40
1.0
 40
1.0
 40
1.0
 40
1.0
 10
293.534
 20
376.968
 30
0.0
 10
293.534
 20
376.76
 30
0.0
 10
293.478
 20
376.587
 30
0.0
 10
293.408
 20
376.587
 30
0.0
  0
SPLINE
  5
2DE
330
1F
100
AcDbEntity
  8
0
 62
     0
100
AcDbSpline
 70
     0
 71
     3
 72
     8
 73
     4
 74
     0
 42
0.000000001
 43
0.0000001
 40
0.0
 40
0.0
 40
0.0
 40
0.0
 40
1.0
 40
1.0
 40
1.0
 40
1.0
 10
293.408
 20
376.587
 30
0.0
 10
293.339
 20
376.587
 30
0.0
 10
293.283
 20
376.76
 30
0.0
 10
293.283
 20
376.968
 30
0.0
  0
LINE
  5
2DF
330
1F
100
AcDbEntity
  8
0
 62
     0
100
AcDbLine
 10
293.283
 20
376.968
 30
0.0
 11
293.283
 21
376.968
 31
0.0
  0
SPLINE
  5
2E0
330
1F
100
AcDbEntity
  8
0
 62
     0
100
AcDbSpline
 70
     0
 71
     3
 72
     8
 73
     4
 74
     0
 42
0.000000001
 43
0.0000001
 40
0.0
 40
0.0
 40
0.0
 40
0.0
 40
1.0
 40
1.0
 40
1.0
 40
1.0
 10
294.671
 20
377.095
 30
0.0
 10
294.671
 20
377.55
 30
0.0
 10
294.703
 20
377.599
 30
0.0
 10
294.987
 20
377.599
 30
0.0
  0
SPLINE
  5
2E1
330
1F
100
AcDbEntity
  8
0
 62
     0
100
AcDbSpline
 70
     0
 71
     3
 72
     8
 73
     4
 74
     0
 42
0.000000001
 43
0.0000001
 40
0.0
 40
0.0
 40
0.0
 40
0.0
 40
1.0
 40
1.0
 40
1.0
 40
1.0
 10
294.987
 20
377.599
 30
0.0
 10
295.348
 20
377.599
 30
0.0
 10
295.415
 20
377.395
 30
0.0
 10
295.082
 20
377.306
 30
0.0
  0
SPLINE
  5
2E2
330
1F
100
AcDbEntity
  8
0
 62
     0
100
AcDbSpline
 70
     0
 71
     3
 72
     8
 73
     4
 74
     0
 42
0.000000001
 43
0.0000001
 40
0.0
 40
0.0
 40
0.0
 40
0.0
 40
1.0
 40
1.0
 40
1.0
 40
1.0
 10
295.082
 20
377.306
 30
0.0
 10
294.872
 20
377.254
 30
0.0
 10
294.872
 20
377.25
 30
0.0
 10
295.082
 20
377.236
 30
0.0
  0
SPLINE
  5
2E3
330
1F
100
AcDbEntity
  8
0
 62
     0
100
AcDbSpline
 70
     0
 71
     3
 72
     8
 73
     4
 74
     0
 42
0.000000001
 43
0.0000001
 40
0.0
 40
0.0
 40
0.0
 40
0.0
 40
1.0
 40
1.0
 40
1.0
 40
1.0
 10
295.082
 20
377.236
 30
0.0
 10
295.205
 20
377.229
 30
0.0
 10
295.304
 20
377.169
 30
0.0
 10
295.304
 20
377.102
 30
0.0
  0
SPLINE
  5
2E4
330
1F
100
AcDbEntity
  8
0
 62
     0
100
AcDbSpline
 70
     0
 71
     3
 72
     8
 73
     4
 74
     0
 42
0.000000001
 43
0.0000001
 40
0.0
 40
0.0
 40
0.0
 40
0.0
 40
1.0
 40
1.0
 40
1.0
 40
1.0
 10
295.304
 20
377.102
 30
0.0
 10
295.304
 20
377.038
 30
0.0
 10
295.205
 20
376.961
 30
0.0
 10
295.082
 20
376.929
 30
0.0
  0
SPLINE
  5
2E5
330
1F
100
AcDbEntity
  8
0
 62
     0
100
AcDbSpline
 70
     0
 71
     3
 72
     8
 73
     4
 74
     0
 42
0.000000001
 43
0.0000001
 40
0.0
 40
0.0
 40
0.0
 40
0.0
 40
1.0
 40
1.0
 40
1.0
 40
1.0
 10
295.082
 20
376.929
 30
0.0
 10
294.872
 20
376.873
 30
0.0
 10
294.872
 20
376.869
 30
0.0
 10
295.082
 20
376.855
 30
0.0
  0
SPLINE
  5
2E6
330
1F
100
AcDbEntity
  8
0
 62
     0
100
AcDbSpline
 70
     0
 71
     3
 72
     8
 73
     4
 74
     0
 42
0.000000001
 43
0.0000001
 40
0.0
 40
0.0
 40
0.0
 40
0.0
 40
1.0
 40
1.0
 40
1.0
 40
1.0
 10
295.082
 20
376.855
 30
0.0
 10
295.428
 20
376.834
 30
0.0
 10
295.341
 20
376.587
 30
0.0
 10
294.987
 20
376.587
 30
0.0
  0
SPLINE
  5
2E7
330
1F
100
AcDbEntity
  8
0
 62
     0
100
AcDbSpline
 70
     0
 71
     3
 72
     8
 73
     4
 74
     0
 42
0.000000001
 43
0.0000001
 40
0.0
 40
0.0
 40
0.0
 40
0.0
 40
1.0
 40
1.0
 40
1.0
 40
1.0
 10
294.987
 20
376.587
 30
0.0
 10
294.703
 20
376.587
 30
0.0
 10
294.671
 20
376.64
 30
0.0
 10
294.671
 20
377.095
 30
0.0
  0
LINE
  5
2E8
330
1F
100
AcDbEntity
  8
0
 62
     0
100
AcDbLine
 10
294.671
 20
377.095
 30
0.0
 11
294.671
 21
377.095
 31
0.0
  0
SPLINE
  5
2E9
330
1F
100
AcDbEntity
  8
0
 62
     0
100
AcDbSpline
 70
     0
 71
     3
 72
     8
 73
     4
 74
     0
 42
0.000000001
 43
0.0000001
 40
0.0
 40
0.0
 40
0.0
 40
0.0
 40
1.0
 40
1.0
 40
1.0
 40
1.0
 10
296.34
 20
376.738
 30
0.0
 10
296.02
 20
377.059
 30
0.0
 10
296.259
 20
377.599
 30
0.0
 10
296.719
 20
377.599
 30
0.0
  0
SPLINE
  5
2EA
330
1F
100
AcDbEntity
  8
0
 62
     0
100
AcDbSpline
 70
     0
 71
     3
 72
     8
 73
     4
 74
     0
 42
0.000000001
 43
0.0000001
 40
0.0
 40
0.0
 40
0.0
 40
0.0
 40
1.0
 40
1.0
 40
1.0
 40
1.0
 10
296.719
 20
377.599
 30
0.0
 10
297.027
 20
377.599
 30
0.0
 10
297.009
 20
377.391
 30
0.0
 10
296.693
 20
377.31
 30
0.0
  0
SPLINE
  5
2EB
330
1F
100
AcDbEntity
  8
0
 62
     0
100
AcDbSpline
 70
     0
 71
     3
 72
     8
 73
     4
 74
     0
 42
0.000000001
 43
0.0000001
 40
0.0
 40
0.0
 40
0.0
 40
0.0
 40
1.0
 40
1.0
 40
1.0
 40
1.0
 10
296.693
 20
377.31
 30
0.0
 10
296.555
 20
377.275
 30
0.0
 10
296.441
 20
377.176
 30
0.0
 10
296.441
 20
377.095
 30
0.0
  0
SPLINE
  5
2EC
330
1F
100
AcDbEntity
  8
0
 62
     0
100
AcDbSpline
 70
     0
 71
     3
 72
     8
 73
     4
 74
     0
 42
0.000000001
 43
0.0000001
 40
0.0
 40
0.0
 40
0.0
 40
0.0
 40
1.0
 40
1.0
 40
1.0
 40
1.0
 10
296.441
 20
377.095
 30
0.0
 10
296.441
 20
377.01
 30
0.0
 10
296.555
 20
376.915
 30
0.0
 10
296.693
 20
376.876
 30
0.0
  0
SPLINE
  5
2ED
330
1F
100
AcDbEntity
  8
0
 62
     0
100
AcDbSpline
 70
     0
 71
     3
 72
     8
 73
     4
 74
     0
 42
0.000000001
 43
0.0000001
 40
0.0
 40
0.0
 40
0.0
 40
0.0
 40
1.0
 40
1.0
 40
1.0
 40
1.0
 10
296.693
 20
376.876
 30
0.0
 10
296.832
 20
376.841
 30
0.0
 10
296.945
 20
376.76
 30
0.0
 10
296.945
 20
376.7
 30
0.0
  0
SPLINE
  5
2EE
330
1F
100
AcDbEntity
  8
0
 62
     0
100
AcDbSpline
 70
     0
 71
     3
 72
     8
 73
     4
 74
     0
 42
0.000000001
 43
0.0000001
 40
0.0
 40
0.0
 40
0.0
 40
0.0
 40
1.0
 40
1.0
 40
1.0
 40
1.0
 10
296.945
 20
376.7
 30
0.0
 10
296.945
 20
376.534
 30
0.0
 10
296.515
 20
376.566
 30
0.0
 10
296.34
 20
376.738
 30
0.0
  0
LINE
  5
2EF
330
1F
100
AcDbEntity
  8
0
 62
     0
100
AcDbLine
 10
296.34
 20
376.738
 30
0.0
 11
296.34
 21
376.738
 31
0.0
  0
SPLINE
  5
2F0
330
1F
100
AcDbEntity
  8
0
 62
     0
100
AcDbSpline
 70
     0
 71
     3
 72
     8
 73
     4
 74
     0
 42
0.000000001
 43
0.0000001
 40
0.0
 40
0.0
 40
0.0
 40
0.0
 40
1.0
 40
1.0
 40
1.0
 40
1.0
 10
297.957
 20
377.095
 30
0.0
 10
297.957
 20
377.373
 30
0.0
 10
298.015
 20
377.599
 30
0.0
 10
298.083
 20
377.599
 30
0.0
  0
SPLINE
  5
2F1
330
1F
100
AcDbEntity
  8
0
 62
     0
100
AcDbSpline
 70
     0
 71
     3
 72
     8
 73
     4
 74
     0
 42
0.000000001
 43
0.0000001
 40
0.0
 40
0.0
 40
0.0
 40
0.0
 40
1.0
 40
1.0
 40
1.0
 40
1.0
 10
298.083
 20
377.599
 30
0.0
 10
298.152
 20
377.599
 30
0.0
 10
298.209
 20
377.515
 30
0.0
 10
298.209
 20
377.409
 30
0.0
  0
SPLINE
  5
2F2
330
1F
100
AcDbEntity
  8
0
 62
     0
100
AcDbSpline
 70
     0
 71
     3
 72
     8
 73
     4
 74
     0
 42
0.000000001
 43
0.0000001
 40
0.0
 40
0.0
 40
0.0
 40
0.0
 40
1.0
 40
1.0
 40
1.0
 40
1.0
 10
298.209
 20
377.409
 30
0.0
 10
298.209
 20
377.306
 30
0.0
 10
298.294
 20
377.222
 30
0.0
 10
298.399
 20
377.222
 30
0.0
  0
SPLINE
  5
2F3
330
1F
100
AcDbEntity
  8
0
 62
     0
100
AcDbSpline
 70
     0
 71
     3
 72
     8
 73
     4
 74
     0
 42
0.000000001
 43
0.0000001
 40
0.0
 40
0.0
 40
0.0
 40
0.0
 40
1.0
 40
1.0
 40
1.0
 40
1.0
 10
298.399
 20
377.222
 30
0.0
 10
298.504
 20
377.222
 30
0.0
 10
298.588
 20
377.306
 30
0.0
 10
298.588
 20
377.409
 30
0.0
  0
SPLINE
  5
2F4
330
1F
100
AcDbEntity
  8
0
 62
     0
100
AcDbSpline
 70
     0
 71
     3
 72
     8
 73
     4
 74
     0
 42
0.000000001
 43
0.0000001
 40
0.0
 40
0.0
 40
0.0
 40
0.0
 40
1.0
 40
1.0
 40
1.0
 40
1.0
 10
298.588
 20
377.409
 30
0.0
 10
298.588
 20
377.515
 30
0.0
 10
298.646
 20
377.599
 30
0.0
 10
298.715
 20
377.599
 30
0.0
  0
SPLINE
  5
2F5
330
1F
100
AcDbEntity
  8
0
 62
     0
100
AcDbSpline
 70
     0
 71
     3
 72
     8
 73
     4
 74
     0
 42
0.000000001
 43
0.0000001
 40
0.0
 40
0.0
 40
0.0
 40
0.0
 40
1.0
 40
1.0
 40
1.0
 40
1.0
 10
298.715
 20
377.599
 30
0.0
 10
298.785
 20
377.599
 30
0.0
 10
298.841
 20
377.373
 30
0.0
 10
298.841
 20
377.095
 30
0.0
  0
SPLINE
  5
2F6
330
1F
100
AcDbEntity
  8
0
 62
     0
100
AcDbSpline
 70
     0
 71
     3
 72
     8
 73
     4
 74
     0
 42
0.000000001
 43
0.0000001
 40
0.0
 40
0.0
 40
0.0
 40
0.0
 40
1.0
 40
1.0
 40
1.0
 40
1.0
 10
298.841
 20
377.095
 30
0.0
 10
298.841
 20
376.816
 30
0.0
 10
298.785
 20
376.587
 30
0.0
 10
298.715
 20
376.587
 30
0.0
  0
SPLINE
  5
2F7
330
1F
100
AcDbEntity
  8
0
 62
     0
100
AcDbSpline
 70
     0
 71
     3
 72
     8
 73
     4
 74
     0
 42
0.000000001
 43
0.0000001
 40
0.0
 40
0.0
 40
0.0
 40
0.0
 40
1.0
 40
1.0
 40
1.0
 40
1.0
 10
298.715
 20
376.587
 30
0.0
 10
298.646
 20
376.587
 30
0.0
 10
298.588
 20
376.671
 30
0.0
 10
298.588
 20
376.777
 30
0.0
  0
SPLINE
  5
2F8
330
1F
100
AcDbEntity
  8
0
 62
     0
100
AcDbSpline
 70
     0
 71
     3
 72
     8
 73
     4
 74
     0
 42
0.000000001
 43
0.0000001
 40
0.0
 40
0.0
 40
0.0
 40
0.0
 40
1.0
 40
1.0
 40
1.0
 40
1.0
 10
298.588
 20
376.777
 30
0.0
 10
298.588
 20
376.88
 30
0.0
 10
298.504
 20
376.968
 30
0.0
 10
298.399
 20
376.968
 30
0.0
  0
SPLINE
  5
2F9
330
1F
100
AcDbEntity
  8
0
 62
     0
100
AcDbSpline
 70
     0
 71
     3
 72
     8
 73
     4
 74
     0
 42
0.000000001
 43
0.0000001
 40
0.0
 40
0.0
 40
0.0
 40
0.0
 40
1.0
 40
1.0
 40
1.0
 40
1.0
 10
298.399
 20
376.968
 30
0.0
 10
298.294
 20
376.968
 30
0.0
 10
298.209
 20
376.88
 30
0.0
 10
298.209
 20
376.777
 30
0.0
  0
SPLINE
  5
2FA
330
1F
100
AcDbEntity
  8
0
 62
     0
100
AcDbSpline
 70
     0
 71
     3
 72
     8
 73
     4
 74
     0
 42
0.000000001
 43
0.0000001
 40
0.0
 40
0.0
 40
0.0
 40
0.0
 40
1.0
 40
1.0
 40
1.0
 40
1.0
 10
298.209
 20
376.777
 30
0.0
 10
298.209
 20
376.671
 30
0.0
 10
298.152
 20
376.587
 30
0.0
 10
298.083
 20
376.587
 30
0.0
  0
SPLINE
  5
2FB
330
1F
100
AcDbEntity
  8
0
 62
     0
100
AcDbSpline
 70
     0
 71
     3
 72
     8
 73
     4
 74
     0
 42
0.000000001
 43
0.0000001
 40
0.0
 40
0.0
 40
0.0
 40
0.0
 40
1.0
 40
1.0
 40
1.0
 40
1.0
 10
298.083
 20
376.587
 30
0.0
 10
298.015
 20
376.587
 30
0.0
 10
297.957
 20
376.816
 30
0.0
 10
297.957
 20
377.095
 30
0.0
  0
LINE
  5
2FC
330
1F
100
AcDbEntity
  8
0
 62
     0
100
AcDbLine
 10
297.957
 20
377.095
 30
0.0
 11
297.957
 21
377.095
 31
0.0
  0
SPLINE
  5
2FD
330
1F
100
AcDbEntity
  8
0
 62
     0
100
AcDbSpline
 70
     0
 71
     3
 72
     8
 73
     4
 74
     0
 42
0.000000001
 43
0.0000001
 40
0.0
 40
0.0
 40
0.0
 40
0.0
 40
1.0
 40
1.0
 40
1.0
 40
1.0
 10
299.725
 20
377.095
 30
0.0
 10
299.725
 20
377.634
 30
0.0
 10
299.902
 20
377.744
 30
0.0
 10
300.181
 20
377.377
 30
0.0
  0
SPLINE
  5
2FE
330
1F
100
AcDbEntity
  8
0
 62
     0
100
AcDbSpline
 70
     0
 71
     3
 72
     8
 73
     4
 74
     0
 42
0.000000001
 43
0.0000001
 40
0.0
 40
0.0
 40
0.0
 40
0.0
 40
1.0
 40
1.0
 40
1.0
 40
1.0
 10
300.181
 20
377.377
 30
0.0
 10
300.341
 20
377.169
 30
0.0
 10
300.35
 20
377.169
 30
0.0
 10
300.353
 20
377.377
 30
0.0
  0
SPLINE
  5
2FF
330
1F
100
AcDbEntity
  8
0
 62
     0
100
AcDbSpline
 70
     0
 71
     3
 72
     8
 73
     4
 74
     0
 42
0.000000001
 43
0.0000001
 40
0.0
 40
0.0
 40
0.0
 40
0.0
 40
1.0
 40
1.0
 40
1.0
 40
1.0
 10
300.353
 20
377.377
 30
0.0
 10
300.363
 20
377.846
 30
0.0
 10
300.609
 20
377.571
 30
0.0
 10
300.609
 20
377.095
 30
0.0
  0
SPLINE
  5
300
330
1F
100
AcDbEntity
  8
0
 62
     0
100
AcDbSpline
 70
     0
 71
     3
 72
     8
 73
     4
 74
     0
 42
0.000000001
 43
0.0000001
 40
0.0
 40
0.0
 40
0.0
 40
0.0
 40
1.0
 40
1.0
 40
1.0
 40
1.0
 10
300.609
 20
377.095
 30
0.0
 10
300.609
 20
376.527
 30
0.0
 10
300.466
 20
376.453
 30
0.0
 10
300.175
 20
376.869
 30
0.0
  0
LINE
  5
301
330
1F
100
AcDbEntity
  8
0
 62
     0
100
AcDbLine
 10
300.175
 20
376.869
 30
0.0
 11
299.978
 21
377.151
 31
0.0
  0
LINE
  5
302
330
1F
100
AcDbEntity
  8
0
 62
     0
100
AcDbLine
 10
299.978
 20
377.151
 30
0.0
 11
299.978
 21
376.869
 31
0.0
  0
SPLINE
  5
303
330
1F
100
AcDbEntity
  8
0
 62
     0
100
AcDbSpline
 70
     0
 71
     3
 72
     8
 73
     4
 74
     0
 42
0.000000001
 43
0.0000001
 40
0.0
 40
0.0
 40
0.0
 40
0.0
 40
1.0
 40
1.0
 40
1.0
 40
1.0
 10
299.978
 20
376.869
 30
0.0
 10
299.978
 20
376.714
 30
0.0
 10
299.922
 20
376.587
 30
0.0
 10
299.852
 20
376.587
 30
0.0
  0
SPLINE
  5
304
330
1F
100
AcDbEntity
  8
0
 62
     0
100
AcDbSpline
 70
     0
 71
     3
 72
     8
 73
     4
 74
     0
 42
0.000000001
 43
0.0000001
 40
0.0
 40
0.0
 40
0.0
 40
0.0
 40
1.0
 40
1.0
 40
1.0
 40
1.0
 10
299.852
 20
376.587
 30
0.0
 10
299.782
 20
376.587
 30
0.0
 10
299.725
 20
376.816
 30
0.0
 10
299.725
 20
377.095
 30
0.0
  0
LINE
  5
305
330
1F
100
AcDbEntity
  8
0
 62
     0
100
AcDbLine
 10
299.725
 20
377.095
 30
0.0
 11
299.725
 21
377.095
 31
0.0
  0
SPLINE
  5
306
330
1F
100
AcDbEntity
  8
0
 62
     0
100
AcDbSpline
 70
     0
 71
     3
 72
     8
 73
     4
 74
     0
 42
0.000000001
 43
0.0000001
 40
0.0
 40
0.0
 40
0.0
 40
0.0
 40
1.0
 40
1.0
 40
1.0
 40
1.0
 10
301.626
 20
376.774
 30
0.0
 10
301.29
 20
377.176
 30
0.0
 10
301.783
 20
377.797
 30
0.0
 10
302.22
 20
377.522
 30
0.0
  0
SPLINE
  5
307
330
1F
100
AcDbEntity
  8
0
 62
     0
100
AcDbSpline
 70
     0
 71
     3
 72
     8
 73
     4
 74
     0
 42
0.000000001
 43
0.0000001
 40
0.0
 40
0.0
 40
0.0
 40
0.0
 40
1.0
 40
1.0
 40
1.0
 40
1.0
 10
302.22
 20
377.522
 30
0.0
 10
302.659
 20
377.246
 30
0.0
 10
302.503
 20
376.587
 30
0.0
 10
302.0
 20
376.587
 30
0.0
  0
SPLINE
  5
308
330
1F
100
AcDbEntity
  8
0
 62
     0
100
AcDbSpline
 70
     0
 71
     3
 72
     8
 73
     4
 74
     0
 42
0.000000001
 43
0.0000001
 40
0.0
 40
0.0
 40
0.0
 40
0.0
 40
1.0
 40
1.0
 40
1.0
 40
1.0
 10
302.0
 20
376.587
 30
0.0
 10
301.877
 20
376.587
 30
0.0
 10
301.709
 20
376.671
 30
0.0
 10
301.626
 20
376.774
 30
0.0
  0
LINE
  5
309
330
1F
100
AcDbEntity
  8
0
 62
     0
100
AcDbLine
 10
301.626
 20
376.774
 30
0.0
 11
301.626
 21
376.774
 31
0.0
  0
SPLINE
  5
30A
330
1F
100
AcDbEntity
  8
0
 62
     0
100
AcDbSpline
 70
     0
 71
     3
 72
     8
 73
     4
 74
     0
 42
0.000000001
 43
0.0000001
 40
0.0
 40
0.0
 40
0.0
 40
0.0
 40
1.0
 40
1.0
 40
1.0
 40
1.0
 10
302.252
 20
377.095
 30
0.0
 10
302.252
 20
377.232
 30
0.0
 10
302.171
 20
377.345
 30
0.0
 10
302.07
 20
377.345
 30
0.0
  0
SPLINE
  5
30B
330
1F
100
AcDbEntity
  8
0
 62
     0
100
AcDbSpline
 70
     0
 71
     3
 72
     8
 73
     4
 74
     0
 42
0.000000001
 43
0.0000001
 40
0.0
 40
0.0
 40
0.0
 40
0.0
 40
1.0
 40
1.0
 40
1.0
 40
1.0
 10
302.07
 20
377.345
 30
0.0
 10
301.847
 20
377.345
 30
0.0
 10
301.705
 20
377.141
 30
0.0
 10
301.81
 20
376.968
 30
0.0
  0
SPLINE
  5
30C
330
1F
100
AcDbEntity
  8
0
 62
     0
100
AcDbSpline
 70
     0
 71
     3
 72
     8
 73
     4
 74
     0
 42
0.000000001
 43
0.0000001
 40
0.0
 40
0.0
 40
0.0
 40
0.0
 40
1.0
 40
1.0
 40
1.0
 40
1.0
 10
301.81
 20
376.968
 30
0.0
 10
301.947
 20
376.745
 30
0.0
 10
302.252
 20
376.83
 30
0.0
 10
302.252
 20
377.095
 30
0.0
  0
LINE
  5
30D
330
1F
100
AcDbEntity
  8
0
 62
     0
100
AcDbLine
 10
302.252
 20
377.095
 30
0.0
 11
302.252
 21
377.095
 31
0.0
  0
SPLINE
  5
30E
330
1F
100
AcDbEntity
  8
0
 62
     0
100
AcDbSpline
 70
     0
 71
     3
 72
     8
 73
     4
 74
     0
 42
0.000000001
 43
0.0000001
 40
0.0
 40
0.0
 40
0.0
 40
0.0
 40
1.0
 40
1.0
 40
1.0
 40
1.0
 10
303.516
 20
377.095
 30
0.0
 10
303.516
 20
377.373
 30
0.0
 10
303.573
 20
377.599
 30
0.0
 10
303.643
 20
377.599
 30
0.0
  0
SPLINE
  5
30F
330
1F
100
AcDbEntity
  8
0
 62
     0
100
AcDbSpline
 70
     0
 71
     3
 72
     8
 73
     4
 74
     0
 42
0.000000001
 43
0.0000001
 40
0.0
 40
0.0
 40
0.0
 40
0.0
 40
1.0
 40
1.0
 40
1.0
 40
1.0
 10
303.643
 20
377.599
 30
0.0
 10
303.711
 20
377.599
 30
0.0
 10
303.768
 20
377.43
 30
0.0
 10
303.768
 20
377.222
 30
0.0
  0
SPLINE
  5
310
330
1F
100
AcDbEntity
  8
0
 62
     0
100
AcDbSpline
 70
     0
 71
     3
 72
     8
 73
     4
 74
     0
 42
0.000000001
 43
0.0000001
 40
0.0
 40
0.0
 40
0.0
 40
0.0
 40
1.0
 40
1.0
 40
1.0
 40
1.0
 10
303.768
 20
377.222
 30
0.0
 10
303.768
 20
376.968
 30
0.0
 10
303.831
 20
376.841
 30
0.0
 10
303.958
 20
376.841
 30
0.0
  0
SPLINE
  5
311
330
1F
100
AcDbEntity
  8
0
 62
     0
100
AcDbSpline
 70
     0
 71
     3
 72
     8
 73
     4
 74
     0
 42
0.000000001
 43
0.0000001
 40
0.0
 40
0.0
 40
0.0
 40
0.0
 40
1.0
 40
1.0
 40
1.0
 40
1.0
 10
303.958
 20
376.841
 30
0.0
 10
304.063
 20
376.841
 30
0.0
 10
304.147
 20
376.784
 30
0.0
 10
304.147
 20
376.714
 30
0.0
  0
SPLINE
  5
312
330
1F
100
AcDbEntity
  8
0
 62
     0
100
AcDbSpline
 70
     0
 71
     3
 72
     8
 73
     4
 74
     0
 42
0.000000001
 43
0.0000001
 40
0.0
 40
0.0
 40
0.0
 40
0.0
 40
1.0
 40
1.0
 40
1.0
 40
1.0
 10
304.147
 20
376.714
 30
0.0
 10
304.147
 20
376.647
 30
0.0
 10
304.005
 20
376.587
 30
0.0
 10
303.831
 20
376.587
 30
0.0
  0
SPLINE
  5
313
330
1F
100
AcDbEntity
  8
0
 62
     0
100
AcDbSpline
 70
     0
 71
     3
 72
     8
 73
     4
 74
     0
 42
0.000000001
 43
0.0000001
 40
0.0
 40
0.0
 40
0.0
 40
0.0
 40
1.0
 40
1.0
 40
1.0
 40
1.0
 10
303.831
 20
376.587
 30
0.0
 10
303.547
 20
376.587
 30
0.0
 10
303.516
 20
376.64
 30
0.0
 10
303.516
 20
377.095
 30
0.0
  0
LINE
  5
314
330
1F
100
AcDbEntity
  8
0
 62
     0
100
AcDbLine
 10
303.516
 20
377.095
 30
0.0
 11
303.516
 21
377.095
 31
0.0
  0
SPLINE
  5
315
330
1F
100
AcDbEntity
  8
0
 62
     0
100
AcDbSpline
 70
     0
 71
     3
 72
     8
 73
     4
 74
     0
 42
0.000000001
 43
0.0000001
 40
0.0
 40
0.0
 40
0.0
 40
0.0
 40
1.0
 40
1.0
 40
1.0
 40
1.0
 10
305.037
 20
376.774
 30
0.0
 10
304.702
 20
377.176
 30
0.0
 10
305.194
 20
377.797
 30
0.0
 10
305.632
 20
377.522
 30
0.0
  0
SPLINE
  5
316
330
1F
100
AcDbEntity
  8
0
 62
     0
100
AcDbSpline
 70
     0
 71
     3
 72
     8
 73
     4
 74
     0
 42
0.000000001
 43
0.0000001
 40
0.0
 40
0.0
 40
0.0
 40
0.0
 40
1.0
 40
1.0
 40
1.0
 40
1.0
 10
305.632
 20
377.522
 30
0.0
 10
306.069
 20
377.246
 30
0.0
 10
305.913
 20
376.587
 30
0.0
 10
305.41
 20
376.587
 30
0.0
  0
SPLINE
  5
317
330
1F
100
AcDbEntity
  8
0
 62
     0
100
AcDbSpline
 70
     0
 71
     3
 72
     8
 73
     4
 74
     0
 42
0.000000001
 43
0.0000001
 40
0.0
 40
0.0
 40
0.0
 40
0.0
 40
1.0
 40
1.0
 40
1.0
 40
1.0
 10
305.41
 20
376.587
 30
0.0
 10
305.289
 20
376.587
 30
0.0
 10
305.121
 20
376.671
 30
0.0
 10
305.037
 20
376.774
 30
0.0
  0
LINE
  5
318
330
1F
100
AcDbEntity
  8
0
 62
     0
100
AcDbLine
 10
305.037
 20
376.774
 30
0.0
 11
305.037
 21
376.774
 31
0.0
  0
SPLINE
  5
319
330
1F
100
AcDbEntity
  8
0
 62
     0
100
AcDbSpline
 70
     0
 71
     3
 72
     8
 73
     4
 74
     0
 42
0.000000001
 43
0.0000001
 40
0.0
 40
0.0
 40
0.0
 40
0.0
 40
1.0
 40
1.0
 40
1.0
 40
1.0
 10
305.608
 20
376.978
 30
0.0
 10
305.737
 20
377.186
 30
0.0
 10
305.445
 20
377.43
 30
0.0
 10
305.271
 20
377.257
 30
0.0
  0
SPLINE
  5
31A
330
1F
100
AcDbEntity
  8
0
 62
     0
100
AcDbSpline
 70
     0
 71
     3
 72
     8
 73
     4
 74
     0
 42
0.000000001
 43
0.0000001
 40
0.0
 40
0.0
 40
0.0
 40
0.0
 40
1.0
 40
1.0
 40
1.0
 40
1.0
 10
305.271
 20
377.257
 30
0.0
 10
305.124
 20
377.109
 30
0.0
 10
305.216
 20
376.841
 30
0.0
 10
305.41
 20
376.841
 30
0.0
  0
SPLINE
  5
31B
330
1F
100
AcDbEntity
  8
0
 62
     0
100
AcDbSpline
 70
     0
 71
     3
 72
     8
 73
     4
 74
     0
 42
0.000000001
 43
0.0000001
 40
0.0
 40
0.0
 40
0.0
 40
0.0
 40
1.0
 40
1.0
 40
1.0
 40
1.0
 10
305.41
 20
376.841
 30
0.0
 10
305.472
 20
376.841
 30
0.0
 10
305.561
 20
376.904
 30
0.0
 10
305.608
 20
376.978
 30
0.0
  0
LINE
  5
31C
330
1F
100
AcDbEntity
  8
0
 62
     0
100
AcDbLine
 10
305.608
 20
376.978
 30
0.0
 11
305.608
 21
376.978
 31
0.0
  0
SPLINE
  5
31D
330
1F
100
AcDbEntity
  8
0
 62
     0
100
AcDbSpline
 70
     0
 71
     3
 72
     8
 73
     4
 74
     0
 42
0.000000001
 43
0.0000001
 40
0.0
 40
0.0
 40
0.0
 40
0.0
 40
1.0
 40
1.0
 40
1.0
 40
1.0
 10
306.953
 20
376.738
 30
0.0
 10
306.611
 20
377.081
 30
0.0
 10
306.878
 20
377.599
 30
0.0
 10
307.395
 20
377.599
 30
0.0
  0
SPLINE
  5
31E
330
1F
100
AcDbEntity
  8
0
 62
     0
100
AcDbSpline
 70
     0
 71
     3
 72
     8
 73
     4
 74
     0
 42
0.000000001
 43
0.0000001
 40
0.0
 40
0.0
 40
0.0
 40
0.0
 40
1.0
 40
1.0
 40
1.0
 40
1.0
 10
307.395
 20
377.599
 30
0.0
 10
307.768
 20
377.599
 30
0.0
 10
307.774
 20
377.377
 30
0.0
 10
307.4
 20
377.324
 30
0.0
  0
SPLINE
  5
31F
330
1F
100
AcDbEntity
  8
0
 62
     0
100
AcDbSpline
 70
     0
 71
     3
 72
     8
 73
     4
 74
     0
 42
0.000000001
 43
0.0000001
 40
0.0
 40
0.0
 40
0.0
 40
0.0
 40
1.0
 40
1.0
 40
1.0
 40
1.0
 10
307.4
 20
377.324
 30
0.0
 10
307.099
 20
377.282
 30
0.0
 10
307.009
 20
376.961
 30
0.0
 10
307.275
 20
376.873
 30
0.0
  0
SPLINE
  5
320
330
1F
100
AcDbEntity
  8
0
 62
     0
100
AcDbSpline
 70
     0
 71
     3
 72
     8
 73
     4
 74
     0
 42
0.000000001
 43
0.0000001
 40
0.0
 40
0.0
 40
0.0
 40
0.0
 40
1.0
 40
1.0
 40
1.0
 40
1.0
 10
307.275
 20
376.873
 30
0.0
 10
307.376
 20
376.837
 30
0.0
 10
307.405
 20
376.894
 30
0.0
 10
307.356
 20
377.021
 30
0.0
  0
SPLINE
  5
321
330
1F
100
AcDbEntity
  8
0
 62
     0
100
AcDbSpline
 70
     0
 71
     3
 72
     8
 73
     4
 74
     0
 42
0.000000001
 43
0.0000001
 40
0.0
 40
0.0
 40
0.0
 40
0.0
 40
1.0
 40
1.0
 40
1.0
 40
1.0
 10
307.356
 20
377.021
 30
0.0
 10
307.305
 20
377.151
 30
0.0
 10
307.35
 20
377.222
 30
0.0
 10
307.482
 20
377.222
 30
0.0
  0
SPLINE
  5
322
330
1F
100
AcDbEntity
  8
0
 62
     0
100
AcDbSpline
 70
     0
 71
     3
 72
     8
 73
     4
 74
     0
 42
0.000000001
 43
0.0000001
 40
0.0
 40
0.0
 40
0.0
 40
0.0
 40
1.0
 40
1.0
 40
1.0
 40
1.0
 10
307.482
 20
377.222
 30
0.0
 10
307.614
 20
377.222
 30
0.0
 10
307.684
 20
377.109
 30
0.0
 10
307.684
 20
376.904
 30
0.0
  0
SPLINE
  5
323
330
1F
100
AcDbEntity
  8
0
 62
     0
100
AcDbSpline
 70
     0
 71
     3
 72
     8
 73
     4
 74
     0
 42
0.000000001
 43
0.0000001
 40
0.0
 40
0.0
 40
0.0
 40
0.0
 40
1.0
 40
1.0
 40
1.0
 40
1.0
 10
307.684
 20
376.904
 30
0.0
 10
307.684
 20
376.657
 30
0.0
 10
307.621
 20
376.587
 30
0.0
 10
307.395
 20
376.587
 30
0.0
  0
SPLINE
  5
324
330
1F
100
AcDbEntity
  8
0
 62
     0
100
AcDbSpline
 70
     0
 71
     3
 72
     8
 73
     4
 74
     0
 42
0.000000001
 43
0.0000001
 40
0.0
 40
0.0
 40
0.0
 40
0.0
 40
1.0
 40
1.0
 40
1.0
 40
1.0
 10
307.395
 20
376.587
 30
0.0
 10
307.235
 20
376.587
 30
0.0
 10
307.037
 20
376.657
 30
0.0
 10
306.953
 20
376.738
 30
0.0
  0
LINE
  5
325
330
1F
100
AcDbEntity
  8
0
 62
     0
100
AcDbLine
 10
306.953
 20
376.738
 30
0.0
 11
306.953
 21
376.738
 31
0.0
  0
SPLINE
  5
326
330
1F
100
AcDbEntity
  8
0
 62
     0
100
AcDbSpline
 70
     0
 71
     3
 72
     8
 73
     4
 74
     0
 42
0.000000001
 43
0.0000001
 40
0.0
 40
0.0
 40
0.0
 40
0.0
 40
1.0
 40
1.0
 40
1.0
 40
1.0
 10
308.863
 20
377.059
 30
0.0
 10
308.707
 20
377.56
 30
0.0
 10
308.755
 20
377.779
 30
0.0
 10
308.955
 20
377.469
 30
0.0
  0
SPLINE
  5
327
330
1F
100
AcDbEntity
  8
0
 62
     0
100
AcDbSpline
 70
     0
 71
     3
 72
     8
 73
     4
 74
     0
 42
0.000000001
 43
0.0000001
 40
0.0
 40
0.0
 40
0.0
 40
0.0
 40
1.0
 40
1.0
 40
1.0
 40
1.0
 10
308.955
 20
377.469
 30
0.0
 10
309.061
 20
377.306
 30
0.0
 10
309.088
 20
377.306
 30
0.0
 10
309.195
 20
377.469
 30
0.0
  0
SPLINE
  5
328
330
1F
100
AcDbEntity
  8
0
 62
     0
100
AcDbSpline
 70
     0
 71
     3
 72
     8
 73
     4
 74
     0
 42
0.000000001
 43
0.0000001
 40
0.0
 40
0.0
 40
0.0
 40
0.0
 40
1.0
 40
1.0
 40
1.0
 40
1.0
 10
309.195
 20
377.469
 30
0.0
 10
309.261
 20
377.571
 30
0.0
 10
309.341
 20
377.627
 30
0.0
 10
309.375
 20
377.592
 30
0.0
  0
SPLINE
  5
329
330
1F
100
AcDbEntity
  8
0
 62
     0
100
AcDbSpline
 70
     0
 71
     3
 72
     8
 73
     4
 74
     0
 42
0.000000001
 43
0.0000001
 40
0.0
 40
0.0
 40
0.0
 40
0.0
 40
1.0
 40
1.0
 40
1.0
 40
1.0
 10
309.375
 20
377.592
 30
0.0
 10
309.447
 20
377.522
 30
0.0
 10
309.168
 20
376.587
 30
0.0
 10
309.075
 20
376.587
 30
0.0
  0
SPLINE
  5
32A
330
1F
100
AcDbEntity
  8
0
 62
     0
100
AcDbSpline
 70
     0
 71
     3
 72
     8
 73
     4
 74
     0
 42
0.000000001
 43
0.0000001
 40
0.0
 40
0.0
 40
0.0
 40
0.0
 40
1.0
 40
1.0
 40
1.0
 40
1.0
 10
309.075
 20
376.587
 30
0.0
 10
309.04
 20
376.587
 30
0.0
 10
308.944
 20
376.802
 30
0.0
 10
308.863
 20
377.059
 30
0.0
  0
LINE
  5
32B
330
1F
100
AcDbEntity
  8
0
 62
     0
100
AcDbLine
 10
308.863
 20
377.059
 30
0.0
 11
308.863
 21
377.059
 31
0.0
  0
LINE
  5
32C
330
1F
100
AcDbEntity
  8
0
 62
     0
100
AcDbLine
 10
279.006
 20
382.27
 30
0.0
 11
279.006
 21
385.685
 31
0.0
  0
LINE
  5
32D
330
1F
100
AcDbEntity
  8
0
 62
     0
100
AcDbLine
 10
279.006
 20
385.685
 30
0.0
 11
277.11
 21
385.685
 31
0.0
  0
LINE
  5
32E
330
1F
100
AcDbEntity
  8
0
 62
     0
100
AcDbLine
 10
277.11
 20
385.685
 30
0.0
 11
277.11
 21
387.96
 31
0.0
  0
LINE
  5
32F
330
1F
100
AcDbEntity
  8
0
 62
     0
100
AcDbLine
 10
277.11
 20
387.96
 30
0.0
 11
283.428
 21
387.96
 31
0.0
  0
LINE
  5
330
330
1F
100
AcDbEntity
  8
0
 62
     0
100
AcDbLine
 10
283.428
 20
387.96
 30
0.0
 11
283.428
 21
385.685
 31
0.0
  0
LINE
  5
331
330
1F
100
AcDbEntity
  8
0
 62
     0
100
AcDbLine
 10
283.428
 20
385.685
 30
0.0
 11
281.663
 21
385.685
 31
0.0
  0
LINE
  5
332
330
1F
100
AcDbEntity
  8
0
 62
     0
100
AcDbLine
 10
281.663
 20
385.685
 30
0.0
 11
281.63
 21
382.305
 31
0.0
  0
LINE
  5
333
330
1F
100
AcDbEntity
  8
0
 62
     0
100
AcDbLine
 10
281.63
 20
382.305
 30
0.0
 11
281.595
 21
378.926
 31
0.0
  0
LINE
  5
334
330
1F
100
AcDbEntity
  8
0
 62
     0
100
AcDbLine
 10
281.595
 20
378.926
 30
0.0
 11
279.006
 21
378.852
 31
0.0
  0
LINE
  5
335
330
1F
100
AcDbEntity
  8
0
 62
     0
100
AcDbLine
 10
279.006
 20
378.852
 30
0.0
 11
279.006
 21
382.27
 31
0.0
  0
LINE
  5
336
330
1F
100
AcDbEntity
  8
0
 62
     0
100
AcDbLine
 10
281.251
 20
382.683
 30
0.0
 11
281.284
 21
386.066
 31
0.0
  0
LINE
  5
337
330
1F
100
AcDbEntity
  8
0
 62
     0
100
AcDbLine
 10
281.284
 20
386.066
 30
0.0
 11
283.048
 21
386.066
 31
0.0
  0
LINE
  5
338
330
1F
100
AcDbEntity
  8
0
 62
     0
100
AcDbLine
 10
283.048
 20
386.066
 30
0.0
 11
283.048
 21
387.579
 31
0.0
  0
LINE
  5
339
330
1F
100
AcDbEntity
  8
0
 62
     0
100
AcDbLine
 10
283.048
 20
387.579
 30
0.0
 11
277.489
 21
387.579
 31
0.0
  0
LINE
  5
33A
330
1F
100
AcDbEntity
  8
0
 62
     0
100
AcDbLine
 10
277.489
 20
387.579
 30
0.0
 11
277.489
 21
386.066
 31
0.0
  0
LINE
  5
33B
330
1F
100
AcDbEntity
  8
0
 62
     0
100
AcDbLine
 10
277.489
 20
386.066
 30
0.0
 11
279.385
 21
386.066
 31
0.0
  0
LINE
  5
33C
330
1F
100
AcDbEntity
  8
0
 62
     0
100
AcDbLine
 10
279.385
 20
386.066
 30
0.0
 11
279.385
 21
379.229
 31
0.0
  0
LINE
  5
33D
330
1F
100
AcDbEntity
  8
0
 62
     0
100
AcDbLine
 10
279.385
 20
379.229
 30
0.0
 11
280.3
 21
379.268
 31
0.0
  0
LINE
  5
33E
330
1F
100
AcDbEntity
  8
0
 62
     0
100
AcDbLine
 10
280.3
 20
379.268
 30
0.0
 11
281.216
 21
379.303
 31
0.0
  0
LINE
  5
33F
330
1F
100
AcDbEntity
  8
0
 62
     0
100
AcDbLine
 10
281.216
 20
379.303
 30
0.0
 11
281.251
 21
382.683
 31
0.0
  0
SPLINE
  5
340
330
1F
100
AcDbEntity
  8
0
 62
     0
100
AcDbSpline
 70
     0
 71
     3
 72
     8
 73
     4
 74
     0
 42
0.000000001
 43
0.0000001
 40
0.0
 40
0.0
 40
0.0
 40
0.0
 40
1.0
 40
1.0
 40
1.0
 40
1.0
 10
283.553
 20
378.947
 30
0.0
 10
283.553
 20
379.007
 30
0.0
 10
285.753
 20
384.775
 30
0.0
 10
286.931
 20
387.802
 30
0.0
  0
SPLINE
  5
341
330
1F
100
AcDbEntity
  8
0
 62
     0
100
AcDbSpline
 70
     0
 71
     3
 72
     8
 73
     4
 74
     0
 42
0.000000001
 43
0.0000001
 40
0.0
 40
0.0
 40
0.0
 40
0.0
 40
1.0
 40
1.0
 40
1.0
 40
1.0
 10
286.931
 20
387.802
 30
0.0
 10
286.975
 20
387.914
 30
0.0
 10
287.382
 20
387.96
 30
0.0
 10
288.352
 20
387.96
 30
0.0
  0
LINE
  5
342
330
1F
100
AcDbEntity
  8
0
 62
     0
100
AcDbLine
 10
288.352
 20
387.96
 30
0.0
 11
289.711
 21
387.96
 31
0.0
  0
LINE
  5
343
330
1F
100
AcDbEntity
  8
0
 62
     0
100
AcDbLine
 10
289.711
 20
387.96
 30
0.0
 11
291.37
 21
383.547
 31
0.0
  0
SPLINE
  5
344
330
1F
100
AcDbEntity
  8
0
 62
     0
100
AcDbSpline
 70
     0
 71
     3
 72
     8
 73
     4
 74
     0
 42
0.000000001
 43
0.0000001
 40
0.0
 40
0.0
 40
0.0
 40
0.0
 40
1.0
 40
1.0
 40
1.0
 40
1.0
 10
291.37
 20
383.547
 30
0.0
 10
292.283
 20
381.116
 30
0.0
 10
293.029
 20
379.07
 30
0.0
 10
293.029
 20
378.996
 30
0.0
  0
SPLINE
  5
345
330
1F
100
AcDbEntity
  8
0
 62
     0
100
AcDbSpline
 70
     0
 71
     3
 72
     8
 73
     4
 74
     0
 42
0.000000001
 43
0.0000001
 40
0.0
 40
0.0
 40
0.0
 40
0.0
 40
1.0
 40
1.0
 40
1.0
 40
1.0
 10
293.029
 20
378.996
 30
0.0
 10
293.029
 20
378.908
 30
0.0
 10
292.545
 20
378.862
 30
0.0
 10
291.67
 20
378.862
 30
0.0
  0
LINE
  5
346
330
1F
100
AcDbEntity
  8
0
 62
     0
100
AcDbLine
 10
291.67
 20
378.862
 30
0.0
 11
290.311
 21
378.862
 31
0.0
  0
LINE
  5
347
330
1F
100
AcDbEntity
  8
0
 62
     0
100
AcDbLine
 10
290.311
 20
378.862
 30
0.0
 11
289.79
 21
380.316
 31
0.0
  0
LINE
  5
348
330
1F
100
AcDbEntity
  8
0
 62
     0
100
AcDbLine
 10
289.79
 20
380.316
 30
0.0
 11
288.331
 21
380.351
 31
0.0
  0
LINE
  5
349
330
1F
100
AcDbEntity
  8
0
 62
     0
100
AcDbLine
 10
288.331
 20
380.351
 30
0.0
 11
286.873
 21
380.386
 31
0.0
  0
LINE
  5
34A
330
1F
100
AcDbEntity
  8
0
 62
     0
100
AcDbLine
 10
286.873
 20
380.386
 30
0.0
 11
286.302
 21
378.862
 31
0.0
  0
LINE
  5
34B
330
1F
100
AcDbEntity
  8
0
 62
     0
100
AcDbLine
 10
286.302
 20
378.862
 30
0.0
 11
284.929
 21
378.862
 31
0.0
  0
SPLINE
  5
34C
330
1F
100
AcDbEntity
  8
0
 62
     0
100
AcDbSpline
 70
     0
 71
     3
 72
     8
 73
     4
 74
     0
 42
0.000000001
 43
0.0000001
 40
0.0
 40
0.0
 40
0.0
 40
0.0
 40
1.0
 40
1.0
 40
1.0
 40
1.0
 10
284.929
 20
378.862
 30
0.0
 10
284.172
 20
378.862
 30
0.0
 10
283.553
 20
378.901
 30
0.0
 10
283.553
 20
378.947
 30
0.0
  0
LINE
  5
34D
330
1F
100
AcDbEntity
  8
0
 62
     0
100
AcDbLine
 10
283.553
 20
378.947
 30
0.0
 11
283.553
 21
378.947
 31
0.0
  0
LINE
  5
34E
330
1F
100
AcDbEntity
  8
0
 62
     0
100
AcDbLine
 10
286.334
 20
380.002
 30
0.0
 11
286.62
 21
380.764
 31
0.0
  0
LINE
  5
34F
330
1F
100
AcDbEntity
  8
0
 62
     0
100
AcDbLine
 10
286.62
 20
380.764
 30
0.0
 11
290.048
 21
380.693
 31
0.0
  0
LINE
  5
350
330
1F
100
AcDbEntity
  8
0
 62
     0
100
AcDbLine
 10
290.048
 20
380.693
 30
0.0
 11
290.577
 21
379.303
 31
0.0
  0
LINE
  5
351
330
1F
100
AcDbEntity
  8
0
 62
     0
100
AcDbLine
 10
290.577
 20
379.303
 30
0.0
 11
291.55
 21
379.268
 31
0.0
  0
SPLINE
  5
352
330
1F
100
AcDbEntity
  8
0
 62
     0
100
AcDbSpline
 70
     0
 71
     3
 72
     8
 73
     4
 74
     0
 42
0.000000001
 43
0.0000001
 40
0.0
 40
0.0
 40
0.0
 40
0.0
 40
1.0
 40
1.0
 40
1.0
 40
1.0
 10
291.55
 20
379.268
 30
0.0
 10
292.086
 20
379.247
 30
0.0
 10
292.524
 20
379.268
 30
0.0
 10
292.524
 20
379.314
 30
0.0
  0
SPLINE
  5
353
330
1F
100
AcDbEntity
  8
0
 62
     0
100
AcDbSpline
 70
     0
 71
     3
 72
     8
 73
     4
 74
     0
 42
0.000000001
 43
0.0000001
 40
0.0
 40
0.0
 40
0.0
 40
0.0
 40
1.0
 40
1.0
 40
1.0
 40
1.0
 10
292.524
 20
379.314
 30
0.0
 10
292.524
 20
379.36
 30
0.0
 10
291.831
 20
381.236
 30
0.0
 10
290.984
 20
383.487
 30
0.0
  0
LINE
  5
354
330
1F
100
AcDbEntity
  8
0
 62
     0
100
AcDbLine
 10
290.984
 20
383.487
 30
0.0
 11
289.443
 21
387.579
 31
0.0
  0
LINE
  5
355
330
1F
100
AcDbEntity
  8
0
 62
     0
100
AcDbLine
 10
289.443
 20
387.579
 30
0.0
 11
287.252
 21
387.579
 31
0.0
  0
LINE
  5
356
330
1F
100
AcDbEntity
  8
0
 62
     0
100
AcDbLine
 10
287.252
 20
387.579
 30
0.0
 11
285.706
 21
383.568
 31
0.0
  0
SPLINE
  5
357
330
1F
100
AcDbEntity
  8
0
 62
     0
100
AcDbSpline
 70
     0
 71
     3
 72
     8
 73
     4
 74
     0
 42
0.000000001
 43
0.0000001
 40
0.0
 40
0.0
 40
0.0
 40
0.0
 40
1.0
 40
1.0
 40
1.0
 40
1.0
 10
285.706
 20
383.568
 30
0.0
 10
284.856
 20
381.363
 30
0.0
 10
284.131
 20
379.487
 30
0.0
 10
284.097
 20
379.398
 30
0.0
  0
SPLINE
  5
358
330
1F
100
AcDbEntity
  8
0
 62
     0
100
AcDbSpline
 70
     0
 71
     3
 72
     8
 73
     4
 74
     0
 42
0.000000001
 43
0.0000001
 40
0.0
 40
0.0
 40
0.0
 40
0.0
 40
1.0
 40
1.0
 40
1.0
 40
1.0
 10
284.097
 20
379.398
 30
0.0
 10
284.048
 20
379.282
 30
0.0
 10
284.284
 20
379.243
 30
0.0
 10
285.042
 20
379.243
 30
0.0
  0
LINE
  5
359
330
1F
100
AcDbEntity
  8
0
 62
     0
100
AcDbLine
 10
285.042
 20
379.243
 30
0.0
 11
286.051
 21
379.243
 31
0.0
  0
LINE
  5
35A
330
1F
100
AcDbEntity
  8
0
 62
     0
100
AcDbLine
 10
286.051
 20
379.243
 30
0.0
 11
286.334
 21
380.002
 31
0.0
  0
SPLINE
  5
35B
330
1F
100
AcDbEntity
  8
0
 62
     0
100
AcDbSpline
 70
     0
 71
     3
 72
     8
 73
     4
 74
     0
 42
0.000000001
 43
0.0000001
 40
0.0
 40
0.0
 40
0.0
 40
0.0
 40
1.0
 40
1.0
 40
1.0
 40
1.0
 10
287.66
 20
383.692
 30
0.0
 10
287.955
 20
384.538
 30
0.0
 10
288.254
 20
385.251
 30
0.0
 10
288.326
 20
385.276
 30
0.0
  0
SPLINE
  5
35C
330
1F
100
AcDbEntity
  8
0
 62
     0
100
AcDbSpline
 70
     0
 71
     3
 72
     8
 73
     4
 74
     0
 42
0.000000001
 43
0.0000001
 40
0.0
 40
0.0
 40
0.0
 40
0.0
 40
1.0
 40
1.0
 40
1.0
 40
1.0
 10
288.326
 20
385.276
 30
0.0
 10
288.397
 20
385.297
 30
0.0
 10
288.669
 20
384.676
 30
0.0
 10
288.929
 20
383.889
 30
0.0
  0
SPLINE
  5
35D
330
1F
100
AcDbEntity
  8
0
 62
     0
100
AcDbSpline
 70
     0
 71
     3
 72
     8
 73
     4
 74
     0
 42
0.000000001
 43
0.0000001
 40
0.0
 40
0.0
 40
0.0
 40
0.0
 40
1.0
 40
1.0
 40
1.0
 40
1.0
 10
288.929
 20
383.889
 30
0.0
 10
289.19
 20
383.106
 30
0.0
 10
289.429
 20
382.39
 30
0.0
 10
289.461
 20
382.305
 30
0.0
  0
SPLINE
  5
35E
330
1F
100
AcDbEntity
  8
0
 62
     0
100
AcDbSpline
 70
     0
 71
     3
 72
     8
 73
     4
 74
     0
 42
0.000000001
 43
0.0000001
 40
0.0
 40
0.0
 40
0.0
 40
0.0
 40
1.0
 40
1.0
 40
1.0
 40
1.0
 10
289.461
 20
382.305
 30
0.0
 10
289.505
 20
382.185
 30
0.0
 10
289.227
 20
382.147
 30
0.0
 10
288.32
 20
382.147
 30
0.0
  0
LINE
  5
35F
330
1F
100
AcDbEntity
  8
0
 62
     0
100
AcDbLine
 10
288.32
 20
382.147
 30
0.0
 11
287.123
 21
382.147
 31
0.0
  0
LINE
  5
360
330
1F
100
AcDbEntity
  8
0
 62
     0
100
AcDbLine
 10
287.123
 20
382.147
 30
0.0
 11
287.66
 21
383.692
 31
0.0
  0
SPLINE
  5
361
330
1F
100
AcDbEntity
  8
0
 62
     0
100
AcDbSpline
 70
     0
 71
     3
 72
     8
 73
     4
 74
     0
 42
0.000000001
 43
0.0000001
 40
0.0
 40
0.0
 40
0.0
 40
0.0
 40
1.0
 40
1.0
 40
1.0
 40
1.0
 10
288.987
 20
382.57
 30
0.0
 10
288.987
 20
382.619
 30
0.0
 10
288.513
 20
384.02
 30
0.0
 10
288.403
 20
384.295
 30
0.0
  0
SPLINE
  5
362
330
1F
100
AcDbEntity
  8
0
 62
     0
100
AcDbSpline
 70
     0
 71
     3
 72
     8
 73
     4
 74
     0
 42
0.000000001
 43
0.0000001
 40
0.0
 40
0.0
 40
0.0
 40
0.0
 40
1.0
 40
1.0
 40
1.0
 40
1.0
 10
288.403
 20
384.295
 30
0.0
 10
288.357
 20
384.411
 30
0.0
 10
288.209
 20
384.14
 30
0.0
 10
288.025
 20
383.607
 30
0.0
  0
SPLINE
  5
363
330
1F
100
AcDbEntity
  8
0
 62
     0
100
AcDbSpline
 70
     0
 71
     3
 72
     8
 73
     4
 74
     0
 42
0.000000001
 43
0.0000001
 40
0.0
 40
0.0
 40
0.0
 40
0.0
 40
1.0
 40
1.0
 40
1.0
 40
1.0
 10
288.025
 20
383.607
 30
0.0
 10
287.86
 20
383.124
 30
0.0
 10
287.723
 20
382.683
 30
0.0
 10
287.723
 20
382.626
 30
0.0
  0
SPLINE
  5
364
330
1F
100
AcDbEntity
  8
0
 62
     0
100
AcDbSpline
 70
     0
 71
     3
 72
     8
 73
     4
 74
     0
 42
0.000000001
 43
0.0000001
 40
0.0
 40
0.0
 40
0.0
 40
0.0
 40
1.0
 40
1.0
 40
1.0
 40
1.0
 10
287.723
 20
382.626
 30
0.0
 10
287.723
 20
382.573
 30
0.0
 10
288.007
 20
382.524
 30
0.0
 10
288.355
 20
382.524
 30
0.0
  0
SPLINE
  5
365
330
1F
100
AcDbEntity
  8
0
 62
     0
100
AcDbSpline
 70
     0
 71
     3
 72
     8
 73
     4
 74
     0
 42
0.000000001
 43
0.0000001
 40
0.0
 40
0.0
 40
0.0
 40
0.0
 40
1.0
 40
1.0
 40
1.0
 40
1.0
 10
288.355
 20
382.524
 30
0.0
 10
288.702
 20
382.524
 30
0.0
 10
288.987
 20
382.545
 30
0.0
 10
288.987
 20
382.57
 30
0.0
  0
LINE
  5
366
330
1F
100
AcDbEntity
  8
0
 62
     0
100
AcDbLine
 10
288.987
 20
382.57
 30
0.0
 11
288.987
 21
382.57
 31
0.0
  0
LINE
  5
367
330
1F
100
AcDbEntity
  8
0
 62
     0
100
AcDbLine
 10
294.546
 20
383.406
 30
0.0
 11
294.546
 21
387.96
 31
0.0
  0
LINE
  5
368
330
1F
100
AcDbEntity
  8
0
 62
     0
100
AcDbLine
 10
294.546
 20
387.96
 30
0.0
 11
297.192
 21
387.96
 31
0.0
  0
LINE
  5
369
330
1F
100
AcDbEntity
  8
0
 62
     0
100
AcDbLine
 10
297.192
 20
387.96
 30
0.0
 11
297.226
 21
386.412
 31
0.0
  0
LINE
  5
36A
330
1F
100
AcDbEntity
  8
0
 62
     0
100
AcDbLine
 10
297.226
 20
386.412
 30
0.0
 11
297.262
 21
384.863
 31
0.0
  0
LINE
  5
36B
330
1F
100
AcDbEntity
  8
0
 62
     0
100
AcDbLine
 10
297.262
 20
384.863
 30
0.0
 11
299.607
 21
387.96
 31
0.0
  0
LINE
  5
36C
330
1F
100
AcDbEntity
  8
0
 62
     0
100
AcDbLine
 10
299.607
 20
387.96
 30
0.0
 11
302.901
 21
387.96
 31
0.0
  0
LINE
  5
36D
330
1F
100
AcDbEntity
  8
0
 62
     0
100
AcDbLine
 10
302.901
 20
387.96
 30
0.0
 11
302.143
 21
387.043
 31
0.0
  0
SPLINE
  5
36E
330
1F
100
AcDbEntity
  8
0
 62
     0
100
AcDbSpline
 70
     0
 71
     3
 72
     8
 73
     4
 74
     0
 42
0.000000001
 43
0.0000001
 40
0.0
 40
0.0
 40
0.0
 40
0.0
 40
1.0
 40
1.0
 40
1.0
 40
1.0
 10
302.143
 20
387.043
 30
0.0
 10
301.726
 20
386.539
 30
0.0
 10
300.927
 20
385.586
 30
0.0
 10
300.368
 20
384.926
 30
0.0
  0
SPLINE
  5
36F
330
1F
100
AcDbEntity
  8
0
 62
     0
100
AcDbSpline
 70
     0
 71
     3
 72
     8
 73
     4
 74
     0
 42
0.000000001
 43
0.0000001
 40
0.0
 40
0.0
 40
0.0
 40
0.0
 40
1.0
 40
1.0
 40
1.0
 40
1.0
 10
300.368
 20
384.926
 30
0.0
 10
299.809
 20
384.267
 30
0.0
 10
299.35
 20
383.695
 30
0.0
 10
299.349
 20
383.66
 30
0.0
  0
SPLINE
  5
370
330
1F
100
AcDbEntity
  8
0
 62
     0
100
AcDbSpline
 70
     0
 71
     3
 72
     8
 73
     4
 74
     0
 42
0.000000001
 43
0.0000001
 40
0.0
 40
0.0
 40
0.0
 40
0.0
 40
1.0
 40
1.0
 40
1.0
 40
1.0
 10
299.349
 20
383.66
 30
0.0
 10
299.347
 20
383.621
 30
0.0
 10
300.199
 20
382.556
 30
0.0
 10
301.242
 20
381.293
 30
0.0
  0
SPLINE
  5
371
330
1F
100
AcDbEntity
  8
0
 62
     0
100
AcDbSpline
 70
     0
 71
     3
 72
     8
 73
     4
 74
     0
 42
0.000000001
 43
0.0000001
 40
0.0
 40
0.0
 40
0.0
 40
0.0
 40
1.0
 40
1.0
 40
1.0
 40
1.0
 10
301.242
 20
381.293
 30
0.0
 10
302.284
 20
380.026
 30
0.0
 10
303.137
 20
378.964
 30
0.0
 10
303.137
 20
378.929
 30
0.0
  0
SPLINE
  5
372
330
1F
100
AcDbEntity
  8
0
 62
     0
100
AcDbSpline
 70
     0
 71
     3
 72
     8
 73
     4
 74
     0
 42
0.000000001
 43
0.0000001
 40
0.0
 40
0.0
 40
0.0
 40
0.0
 40
1.0
 40
1.0
 40
1.0
 40
1.0
 10
303.137
 20
378.929
 30
0.0
 10
303.137
 20
378.89
 30
0.0
 10
302.383
 20
378.862
 30
0.0
 10
301.462
 20
378.866
 30
0.0
  0
LINE
  5
373
330
1F
100
AcDbEntity
  8
0
 62
     0
100
AcDbLine
 10
301.462
 20
378.866
 30
0.0
 11
299.788
 21
378.869
 31
0.0
  0
LINE
  5
374
330
1F
100
AcDbEntity
  8
0
 62
     0
100
AcDbLine
 10
299.788
 20
378.869
 30
0.0
 11
297.262
 21
382.185
 31
0.0
  0
LINE
  5
375
330
1F
100
AcDbEntity
  8
0
 62
     0
100
AcDbLine
 10
297.262
 20
382.185
 30
0.0
 11
297.135
 21
378.926
 31
0.0
  0
LINE
  5
376
330
1F
100
AcDbEntity
  8
0
 62
     0
100
AcDbLine
 10
297.135
 20
378.926
 30
0.0
 11
294.546
 21
378.852
 31
0.0
  0
LINE
  5
377
330
1F
100
AcDbEntity
  8
0
 62
     0
100
AcDbLine
 10
294.546
 20
378.852
 30
0.0
 11
294.546
 21
383.406
 31
0.0
  0
SPLINE
  5
378
330
1F
100
AcDbEntity
  8
0
 62
     0
100
AcDbSpline
 70
     0
 71
     3
 72
     8
 73
     4
 74
     0
 42
0.000000001
 43
0.0000001
 40
0.0
 40
0.0
 40
0.0
 40
0.0
 40
1.0
 40
1.0
 40
1.0
 40
1.0
 10
296.791
 20
381.176
 30
0.0
 10
296.818
 20
382.584
 30
0.0
 10
296.865
 20
383.039
 30
0.0
 10
296.981
 20
383.0
 30
0.0
  0
SPLINE
  5
379
330
1F
100
AcDbEntity
  8
0
 62
     0
100
AcDbSpline
 70
     0
 71
     3
 72
     8
 73
     4
 74
     0
 42
0.000000001
 43
0.0000001
 40
0.0
 40
0.0
 40
0.0
 40
0.0
 40
1.0
 40
1.0
 40
1.0
 40
1.0
 10
296.981
 20
383.0
 30
0.0
 10
297.066
 20
382.972
 30
0.0
 10
297.783
 20
382.115
 30
0.0
 10
298.574
 20
381.095
 30
0.0
  0
LINE
  5
37A
330
1F
100
AcDbEntity
  8
0
 62
     0
100
AcDbLine
 10
298.574
 20
381.095
 30
0.0
 11
300.013
 21
379.243
 31
0.0
  0
LINE
  5
37B
330
1F
100
AcDbEntity
  8
0
 62
     0
100
AcDbLine
 10
300.013
 20
379.243
 30
0.0
 11
301.203
 21
379.243
 31
0.0
  0
SPLINE
  5
37C
330
1F
100
AcDbEntity
  8
0
 62
     0
100
AcDbSpline
 70
     0
 71
     3
 72
     8
 73
     4
 74
     0
 42
0.000000001
 43
0.0000001
 40
0.0
 40
0.0
 40
0.0
 40
0.0
 40
1.0
 40
1.0
 40
1.0
 40
1.0
 10
301.203
 20
379.243
 30
0.0
 10
301.858
 20
379.243
 30
0.0
 10
302.367
 20
379.286
 30
0.0
 10
302.332
 20
379.342
 30
0.0
  0
SPLINE
  5
37D
330
1F
100
AcDbEntity
  8
0
 62
     0
100
AcDbSpline
 70
     0
 71
     3
 72
     8
 73
     4
 74
     0
 42
0.000000001
 43
0.0000001
 40
0.0
 40
0.0
 40
0.0
 40
0.0
 40
1.0
 40
1.0
 40
1.0
 40
1.0
 10
302.332
 20
379.342
 30
0.0
 10
302.297
 20
379.398
 30
0.0
 10
301.498
 20
380.376
 30
0.0
 10
300.556
 20
381.519
 30
0.0
  0
SPLINE
  5
37E
330
1F
100
AcDbEntity
  8
0
 62
     0
100
AcDbSpline
 70
     0
 71
     3
 72
     8
 73
     4
 74
     0
 42
0.000000001
 43
0.0000001
 40
0.0
 40
0.0
 40
0.0
 40
0.0
 40
1.0
 40
1.0
 40
1.0
 40
1.0
 10
300.556
 20
381.519
 30
0.0
 10
299.612
 20
382.662
 30
0.0
 10
298.855
 20
383.639
 30
0.0
 10
298.872
 20
383.688
 30
0.0
  0
SPLINE
  5
37F
330
1F
100
AcDbEntity
  8
0
 62
     0
100
AcDbSpline
 70
     0
 71
     3
 72
     8
 73
     4
 74
     0
 42
0.000000001
 43
0.0000001
 40
0.0
 40
0.0
 40
0.0
 40
0.0
 40
1.0
 40
1.0
 40
1.0
 40
1.0
 10
298.872
 20
383.688
 30
0.0
 10
298.89
 20
383.738
 30
0.0
 10
299.558
 20
384.556
 30
0.0
 10
300.357
 20
385.509
 30
0.0
  0
SPLINE
  5
380
330
1F
100
AcDbEntity
  8
0
 62
     0
100
AcDbSpline
 70
     0
 71
     3
 72
     8
 73
     4
 74
     0
 42
0.000000001
 43
0.0000001
 40
0.0
 40
0.0
 40
0.0
 40
0.0
 40
1.0
 40
1.0
 40
1.0
 40
1.0
 10
300.357
 20
385.509
 30
0.0
 10
301.157
 20
386.457
 30
0.0
 10
301.856
 20
387.315
 30
0.0
 10
301.912
 20
387.406
 30
0.0
  0
SPLINE
  5
381
330
1F
100
AcDbEntity
  8
0
 62
     0
100
AcDbSpline
 70
     0
 71
     3
 72
     8
 73
     4
 74
     0
 42
0.000000001
 43
0.0000001
 40
0.0
 40
0.0
 40
0.0
 40
0.0
 40
1.0
 40
1.0
 40
1.0
 40
1.0
 10
301.912
 20
387.406
 30
0.0
 10
301.993
 20
387.548
 30
0.0
 10
301.803
 20
387.579
 30
0.0
 10
300.9
 20
387.576
 30
0.0
  0
LINE
  5
382
330
1F
100
AcDbEntity
  8
0
 62
     0
100
AcDbLine
 10
300.9
 20
387.576
 30
0.0
 11
299.788
 21
387.572
 31
0.0
  0
LINE
  5
383
330
1F
100
AcDbEntity
  8
0
 62
     0
100
AcDbLine
 10
299.788
 20
387.572
 30
0.0
 11
298.462
 21
385.812
 31
0.0
  0
SPLINE
  5
384
330
1F
100
AcDbEntity
  8
0
 62
     0
100
AcDbSpline
 70
     0
 71
     3
 72
     8
 73
     4
 74
     0
 42
0.000000001
 43
0.0000001
 40
0.0
 40
0.0
 40
0.0
 40
0.0
 40
1.0
 40
1.0
 40
1.0
 40
1.0
 10
298.462
 20
385.812
 30
0.0
 10
297.732
 20
384.842
 30
0.0
 10
297.064
 20
384.048
 30
0.0
 10
296.977
 20
384.044
 30
0.0
  0
SPLINE
  5
385
330
1F
100
AcDbEntity
  8
0
 62
     0
100
AcDbSpline
 70
     0
 71
     3
 72
     8
 73
     4
 74
     0
 42
0.000000001
 43
0.0000001
 40
0.0
 40
0.0
 40
0.0
 40
0.0
 40
1.0
 40
1.0
 40
1.0
 40
1.0
 10
296.977
 20
384.044
 30
0.0
 10
296.858
 20
384.044
 30
0.0
 10
296.82
 20
384.478
 30
0.0
 10
296.82
 20
385.812
 30
0.0
  0
LINE
  5
386
330
1F
100
AcDbEntity
  8
0
 62
     0
100
AcDbLine
 10
296.82
 20
385.812
 30
0.0
 11
296.82
 21
387.579
 31
0.0
  0
LINE
  5
387
330
1F
100
AcDbEntity
  8
0
 62
     0
100
AcDbLine
 10
296.82
 20
387.579
 30
0.0
 11
294.925
 21
387.579
 31
0.0
  0
LINE
  5
388
330
1F
100
AcDbEntity
  8
0
 62
     0
100
AcDbLine
 10
294.925
 20
387.579
 30
0.0
 11
294.925
 21
379.229
 31
0.0
  0
LINE
  5
389
330
1F
100
AcDbEntity
  8
0
 62
     0
100
AcDbLine
 10
294.925
 20
379.229
 30
0.0
 11
295.84
 21
379.268
 31
0.0
  0
LINE
  5
38A
330
1F
100
AcDbEntity
  8
0
 62
     0
100
AcDbLine
 10
295.84
 20
379.268
 30
0.0
 11
296.756
 21
379.303
 31
0.0
  0
LINE
  5
38B
330
1F
100
AcDbEntity
  8
0
 62
     0
100
AcDbLine
 10
296.756
 20
379.303
 30
0.0
 11
296.791
 21
381.176
 31
0.0
  0
LINE
  5
38C
330
1F
100
AcDbEntity
  8
0
 62
     0
100
AcDbLine
 10
304.4
 20
383.409
 30
0.0
 11
304.4
 21
387.96
 31
0.0
  0
LINE
  5
38D
330
1F
100
AcDbEntity
  8
0
 62
     0
100
AcDbLine
 10
304.4
 20
387.96
 30
0.0
 11
309.706
 21
387.96
 31
0.0
  0
LINE
  5
38E
330
1F
100
AcDbEntity
  8
0
 62
     0
100
AcDbLine
 10
309.706
 20
387.96
 30
0.0
 11
309.706
 21
385.685
 31
0.0
  0
LINE
  5
38F
330
1F
100
AcDbEntity
  8
0
 62
     0
100
AcDbLine
 10
309.706
 20
385.685
 30
0.0
 11
307.053
 21
385.685
 31
0.0
  0
LINE
  5
390
330
1F
100
AcDbEntity
  8
0
 62
     0
100
AcDbLine
 10
307.053
 20
385.685
 30
0.0
 11
307.053
 21
384.549
 31
0.0
  0
LINE
  5
391
330
1F
100
AcDbEntity
  8
0
 62
     0
100
AcDbLine
 10
307.053
 20
384.549
 30
0.0
 11
309.581
 21
384.549
 31
0.0
  0
LINE
  5
392
330
1F
100
AcDbEntity
  8
0
 62
     0
100
AcDbLine
 10
309.581
 20
384.549
 30
0.0
 11
309.581
 21
382.274
 31
0.0
  0
LINE
  5
393
330
1F
100
AcDbEntity
  8
0
 62
     0
100
AcDbLine
 10
309.581
 20
382.274
 30
0.0
 11
307.053
 21
382.274
 31
0.0
  0
LINE
  5
394
330
1F
100
AcDbEntity
  8
0
 62
     0
100
AcDbLine
 10
307.053
 20
382.274
 30
0.0
 11
307.053
 21
381.138
 31
0.0
  0
LINE
  5
395
330
1F
100
AcDbEntity
  8
0
 62
     0
100
AcDbLine
 10
307.053
 20
381.138
 30
0.0
 11
309.706
 21
381.138
 31
0.0
  0
LINE
  5
396
330
1F
100
AcDbEntity
  8
0
 62
     0
100
AcDbLine
 10
309.706
 20
381.138
 30
0.0
 11
309.706
 21
378.862
 31
0.0
  0
LINE
  5
397
330
1F
100
AcDbEntity
  8
0
 62
     0
100
AcDbLine
 10
309.706
 20
378.862
 30
0.0
 11
304.4
 21
378.862
 31
0.0
  0
LINE
  5
398
330
1F
100
AcDbEntity
  8
0
 62
     0
100
AcDbLine
 10
304.4
 20
378.862
 30
0.0
 11
304.4
 21
383.409
 31
0.0
  0
LINE
  5
399
330
1F
100
AcDbEntity
  8
0
 62
     0
100
AcDbLine
 10
309.327
 20
379.998
 30
0.0
 11
309.327
 21
380.757
 31
0.0
  0
LINE
  5
39A
330
1F
100
AcDbEntity
  8
0
 62
     0
100
AcDbLine
 10
309.327
 20
380.757
 30
0.0
 11
306.674
 21
380.757
 31
0.0
  0
LINE
  5
39B
330
1F
100
AcDbEntity
  8
0
 62
     0
100
AcDbLine
 10
306.674
 20
380.757
 30
0.0
 11
306.674
 21
382.651
 31
0.0
  0
LINE
  5
39C
330
1F
100
AcDbEntity
  8
0
 62
     0
100
AcDbLine
 10
306.674
 20
382.651
 30
0.0
 11
309.202
 21
382.651
 31
0.0
  0
LINE
  5
39D
330
1F
100
AcDbEntity
  8
0
 62
     0
100
AcDbLine
 10
309.202
 20
382.651
 30
0.0
 11
309.202
 21
384.168
 31
0.0
  0
LINE
  5
39E
330
1F
100
AcDbEntity
  8
0
 62
     0
100
AcDbLine
 10
309.202
 20
384.168
 30
0.0
 11
306.674
 21
384.168
 31
0.0
  0
LINE
  5
39F
330
1F
100
AcDbEntity
  8
0
 62
     0
100
AcDbLine
 10
306.674
 20
384.168
 30
0.0
 11
306.674
 21
386.066
 31
0.0
  0
LINE
  5
3A0
330
1F
100
AcDbEntity
  8
0
 62
     0
100
AcDbLine
 10
306.674
 20
386.066
 30
0.0
 11
309.327
 21
386.066
 31
0.0
  0
LINE
  5
3A1
330
1F
100
AcDbEntity
  8
0
 62
     0
100
AcDbLine
 10
309.327
 20
386.066
 30
0.0
 11
309.327
 21
387.579
 31
0.0
  0
LINE
  5
3A2
330
1F
100
AcDbEntity
  8
0
 62
     0
100
AcDbLine
 10
309.327
 20
387.579
 30
0.0
 11
304.779
 21
387.579
 31
0.0
  0
LINE
  5
3A3
330
1F
100
AcDbEntity
  8
0
 62
     0
100
AcDbLine
 10
304.779
 20
387.579
 30
0.0
 11
304.779
 21
379.243
 31
0.0
  0
LINE
  5
3A4
330
1F
100
AcDbEntity
  8
0
 62
     0
100
AcDbLine
 10
304.779
 20
379.243
 30
0.0
 11
309.327
 21
379.243
 31
0.0
  0
LINE
  5
3A5
330
1F
100
AcDbEntity
  8
0
 62
     0
100
AcDbLine
 10
309.327
 20
379.243
 30
0.0
 11
309.327
 21
379.998
 31
0.0
  0
LINE
  5
3A6
330
1F
100
AcDbEntity
  8
0
 62
     0
100
AcDbLine
 10
328.152
 20
383.536
 30
0.0
 11
328.152
 21
387.833
 31
0.0
  0
LINE
  5
3A7
330
1F
100
AcDbEntity
  8
0
 62
     0
100
AcDbLine
 10
328.152
 20
387.833
 30
0.0
 11
330.521
 21
387.833
 31
0.0
  0
LINE
  5
3A8
330
1F
100
AcDbEntity
  8
0
 62
     0
100
AcDbLine
 10
330.521
 20
387.833
 30
0.0
 11
332.526
 21
385.247
 31
0.0
  0
LINE
  5
3A9
330
1F
100
AcDbEntity
  8
0
 62
     0
100
AcDbLine
 10
332.526
 20
385.247
 30
0.0
 11
334.532
 21
382.665
 31
0.0
  0
LINE
  5
3AA
330
1F
100
AcDbEntity
  8
0
 62
     0
100
AcDbLine
 10
334.532
 20
382.665
 30
0.0
 11
334.567
 21
385.247
 31
0.0
  0
LINE
  5
3AB
330
1F
100
AcDbEntity
  8
0
 62
     0
100
AcDbLine
 10
334.567
 20
385.247
 30
0.0
 11
334.602
 21
387.833
 31
0.0
  0
LINE
  5
3AC
330
1F
100
AcDbEntity
  8
0
 62
     0
100
AcDbLine
 10
334.602
 20
387.833
 30
0.0
 11
336.87
 21
387.833
 31
0.0
  0
LINE
  5
3AD
330
1F
100
AcDbEntity
  8
0
 62
     0
100
AcDbLine
 10
336.87
 20
387.833
 30
0.0
 11
336.87
 21
379.233
 31
0.0
  0
LINE
  5
3AE
330
1F
100
AcDbEntity
  8
0
 62
     0
100
AcDbLine
 10
336.87
 20
379.233
 30
0.0
 11
335.708
 21
379.268
 31
0.0
  0
LINE
  5
3AF
330
1F
100
AcDbEntity
  8
0
 62
     0
100
AcDbLine
 10
335.708
 20
379.268
 30
0.0
 11
334.545
 21
379.303
 31
0.0
  0
LINE
  5
3B0
330
1F
100
AcDbEntity
  8
0
 62
     0
100
AcDbLine
 10
334.545
 20
379.303
 30
0.0
 11
332.58
 21
381.857
 31
0.0
  0
SPLINE
  5
3B1
330
1F
100
AcDbEntity
  8
0
 62
     0
100
AcDbSpline
 70
     0
 71
     3
 72
     8
 73
     4
 74
     0
 42
0.000000001
 43
0.0000001
 40
0.0
 40
0.0
 40
0.0
 40
0.0
 40
1.0
 40
1.0
 40
1.0
 40
1.0
 10
332.58
 20
381.857
 30
0.0
 10
331.5
 20
383.261
 30
0.0
 10
330.574
 20
384.411
 30
0.0
 10
330.521
 20
384.415
 30
0.0
  0
SPLINE
  5
3B2
330
1F
100
AcDbEntity
  8
0
 62
     0
100
AcDbSpline
 70
     0
 71
     3
 72
     8
 73
     4
 74
     0
 42
0.000000001
 43
0.0000001
 40
0.0
 40
0.0
 40
0.0
 40
0.0
 40
1.0
 40
1.0
 40
1.0
 40
1.0
 10
330.521
 20
384.415
 30
0.0
 10
330.469
 20
384.418
 30
0.0
 10
330.426
 20
383.254
 30
0.0
 10
330.426
 20
381.833
 30
0.0
  0
LINE
  5
3B3
330
1F
100
AcDbEntity
  8
0
 62
     0
100
AcDbLine
 10
330.426
 20
381.833
 30
0.0
 11
330.426
 21
379.243
 31
0.0
  0
LINE
  5
3B4
330
1F
100
AcDbEntity
  8
0
 62
     0
100
AcDbLine
 10
330.426
 20
379.243
 30
0.0
 11
328.152
 21
379.243
 31
0.0
  0
LINE
  5
3B5
330
1F
100
AcDbEntity
  8
0
 62
     0
100
AcDbLine
 10
328.152
 20
379.243
 30
0.0
 11
328.152
 21
383.536
 31
0.0
  0
LINE
  5
3B6
330
1F
100
AcDbEntity
  8
0
 62
     0
100
AcDbLine
 10
339.523
 20
383.536
 30
0.0
 11
339.523
 21
387.833
 31
0.0
  0
LINE
  5
3B7
330
1F
100
AcDbEntity
  8
0
 62
     0
100
AcDbLine
 10
339.523
 20
387.833
 30
0.0
 11
344.45
 21
387.833
 31
0.0
  0
LINE
  5
3B8
330
1F
100
AcDbEntity
  8
0
 62
     0
100
AcDbLine
 10
344.45
 20
387.833
 30
0.0
 11
344.45
 21
385.939
 31
0.0
  0
LINE
  5
3B9
330
1F
100
AcDbEntity
  8
0
 62
     0
100
AcDbLine
 10
344.45
 20
385.939
 30
0.0
 11
341.798
 21
385.939
 31
0.0
  0
LINE
  5
3BA
330
1F
100
AcDbEntity
  8
0
 62
     0
100
AcDbLine
 10
341.798
 20
385.939
 30
0.0
 11
341.798
 21
384.549
 31
0.0
  0
LINE
  5
3BB
330
1F
100
AcDbEntity
  8
0
 62
     0
100
AcDbLine
 10
341.798
 20
384.549
 30
0.0
 11
344.323
 21
384.549
 31
0.0
  0
LINE
  5
3BC
330
1F
100
AcDbEntity
  8
0
 62
     0
100
AcDbLine
 10
344.323
 20
384.549
 30
0.0
 11
344.323
 21
382.651
 31
0.0
  0
LINE
  5
3BD
330
1F
100
AcDbEntity
  8
0
 62
     0
100
AcDbLine
 10
344.323
 20
382.651
 30
0.0
 11
341.798
 21
382.651
 31
0.0
  0
LINE
  5
3BE
330
1F
100
AcDbEntity
  8
0
 62
     0
100
AcDbLine
 10
341.798
 20
382.651
 30
0.0
 11
341.798
 21
381.138
 31
0.0
  0
LINE
  5
3BF
330
1F
100
AcDbEntity
  8
0
 62
     0
100
AcDbLine
 10
341.798
 20
381.138
 30
0.0
 11
344.45
 21
381.138
 31
0.0
  0
LINE
  5
3C0
330
1F
100
AcDbEntity
  8
0
 62
     0
100
AcDbLine
 10
344.45
 20
381.138
 30
0.0
 11
344.45
 21
379.243
 31
0.0
  0
LINE
  5
3C1
330
1F
100
AcDbEntity
  8
0
 62
     0
100
AcDbLine
 10
344.45
 20
379.243
 30
0.0
 11
339.523
 21
379.243
 31
0.0
  0
LINE
  5
3C2
330
1F
100
AcDbEntity
  8
0
 62
     0
100
AcDbLine
 10
339.523
 20
379.243
 30
0.0
 11
339.523
 21
383.536
 31
0.0
  0
SPLINE
  5
3C3
330
1F
100
AcDbEntity
  8
0
 62
     0
100
AcDbSpline
 70
     0
 71
     3
 72
     8
 73
     4
 74
     0
 42
0.000000001
 43
0.0000001
 40
0.0
 40
0.0
 40
0.0
 40
0.0
 40
1.0
 40
1.0
 40
1.0
 40
1.0
 10
337.42
 20
388.909
 30
0.0
 10
337.38
 20
389.015
 30
0.0
 10
337.373
 20
389.241
 30
0.0
 10
337.406
 20
389.41
 30
0.0
  0
SPLINE
  5
3C4
330
1F
100
AcDbEntity
  8
0
 62
     0
100
AcDbSpline
 70
     0
 71
     3
 72
     8
 73
     4
 74
     0
 42
0.000000001
 43
0.0000001
 40
0.0
 40
0.0
 40
0.0
 40
0.0
 40
1.0
 40
1.0
 40
1.0
 40
1.0
 10
337.406
 20
389.41
 30
0.0
 10
337.439
 20
389.58
 30
0.0
 10
337.417
 20
389.689
 30
0.0
 10
337.358
 20
389.654
 30
0.0
  0
SPLINE
  5
3C5
330
1F
100
AcDbEntity
  8
0
 62
     0
100
AcDbSpline
 70
     0
 71
     3
 72
     8
 73
     4
 74
     0
 42
0.000000001
 43
0.0000001
 40
0.0
 40
0.0
 40
0.0
 40
0.0
 40
1.0
 40
1.0
 40
1.0
 40
1.0
 10
337.358
 20
389.654
 30
0.0
 10
337.11
 20
389.498
 30
0.0
 10
337.276
 20
389.809
 30
0.0
 10
337.652
 20
390.197
 30
0.0
  0
SPLINE
  5
3C6
330
1F
100
AcDbEntity
  8
0
 62
     0
100
AcDbSpline
 70
     0
 71
     3
 72
     8
 73
     4
 74
     0
 42
0.000000001
 43
0.0000001
 40
0.0
 40
0.0
 40
0.0
 40
0.0
 40
1.0
 40
1.0
 40
1.0
 40
1.0
 10
337.652
 20
390.197
 30
0.0
 10
338.031
 20
390.585
 30
0.0
 10
338.04
 20
390.613
 30
0.0
 10
337.779
 20
390.613
 30
0.0
  0
SPLINE
  5
3C7
330
1F
100
AcDbEntity
  8
0
 62
     0
100
AcDbSpline
 70
     0
 71
     3
 72
     8
 73
     4
 74
     0
 42
0.000000001
 43
0.0000001
 40
0.0
 40
0.0
 40
0.0
 40
0.0
 40
1.0
 40
1.0
 40
1.0
 40
1.0
 10
337.779
 20
390.613
 30
0.0
 10
337.626
 20
390.613
 30
0.0
 10
337.501
 20
390.687
 30
0.0
 10
337.501
 20
390.775
 30
0.0
  0
SPLINE
  5
3C8
330
1F
100
AcDbEntity
  8
0
 62
     0
100
AcDbSpline
 70
     0
 71
     3
 72
     8
 73
     4
 74
     0
 42
0.000000001
 43
0.0000001
 40
0.0
 40
0.0
 40
0.0
 40
0.0
 40
1.0
 40
1.0
 40
1.0
 40
1.0
 10
337.501
 20
390.775
 30
0.0
 10
337.501
 20
391.037
 30
0.0
 10
337.778
 20
391.245
 30
0.0
 10
338.128
 20
391.245
 30
0.0
  0
SPLINE
  5
3C9
330
1F
100
AcDbEntity
  8
0
 62
     0
100
AcDbSpline
 70
     0
 71
     3
 72
     8
 73
     4
 74
     0
 42
0.000000001
 43
0.0000001
 40
0.0
 40
0.0
 40
0.0
 40
0.0
 40
1.0
 40
1.0
 40
1.0
 40
1.0
 10
338.128
 20
391.245
 30
0.0
 10
338.315
 20
391.245
 30
0.0
 10
338.519
 20
391.35
 30
0.0
 10
338.609
 20
391.495
 30
0.0
  0
SPLINE
  5
3CA
330
1F
100
AcDbEntity
  8
0
 62
     0
100
AcDbSpline
 70
     0
 71
     3
 72
     8
 73
     4
 74
     0
 42
0.000000001
 43
0.0000001
 40
0.0
 40
0.0
 40
0.0
 40
0.0
 40
1.0
 40
1.0
 40
1.0
 40
1.0
 10
338.609
 20
391.495
 30
0.0
 10
338.697
 20
391.636
 30
0.0
 10
338.89
 20
391.749
 30
0.0
 10
339.039
 20
391.749
 30
0.0
  0
SPLINE
  5
3CB
330
1F
100
AcDbEntity
  8
0
 62
     0
100
AcDbSpline
 70
     0
 71
     3
 72
     8
 73
     4
 74
     0
 42
0.000000001
 43
0.0000001
 40
0.0
 40
0.0
 40
0.0
 40
0.0
 40
1.0
 40
1.0
 40
1.0
 40
1.0
 10
339.039
 20
391.749
 30
0.0
 10
339.296
 20
391.749
 30
0.0
 10
339.299
 20
391.739
 30
0.0
 10
339.092
 20
391.509
 30
0.0
  0
SPLINE
  5
3CC
330
1F
100
AcDbEntity
  8
0
 62
     0
100
AcDbSpline
 70
     0
 71
     3
 72
     8
 73
     4
 74
     0
 42
0.000000001
 43
0.0000001
 40
0.0
 40
0.0
 40
0.0
 40
0.0
 40
1.0
 40
1.0
 40
1.0
 40
1.0
 10
339.092
 20
391.509
 30
0.0
 10
338.941
 20
391.343
 30
0.0
 10
338.922
 20
391.255
 30
0.0
 10
339.028
 20
391.22
 30
0.0
  0
SPLINE
  5
3CD
330
1F
100
AcDbEntity
  8
0
 62
     0
100
AcDbSpline
 70
     0
 71
     3
 72
     8
 73
     4
 74
     0
 42
0.000000001
 43
0.0000001
 40
0.0
 40
0.0
 40
0.0
 40
0.0
 40
1.0
 40
1.0
 40
1.0
 40
1.0
 10
339.028
 20
391.22
 30
0.0
 10
339.254
 20
391.142
 30
0.0
 10
338.886
 20
390.613
 30
0.0
 10
338.606
 20
390.613
 30
0.0
  0
SPLINE
  5
3CE
330
1F
100
AcDbEntity
  8
0
 62
     0
100
AcDbSpline
 70
     0
 71
     3
 72
     8
 73
     4
 74
     0
 42
0.000000001
 43
0.0000001
 40
0.0
 40
0.0
 40
0.0
 40
0.0
 40
1.0
 40
1.0
 40
1.0
 40
1.0
 10
338.606
 20
390.613
 30
0.0
 10
338.362
 20
390.613
 30
0.0
 10
337.882
 20
389.922
 30
0.0
 10
337.881
 20
389.569
 30
0.0
  0
SPLINE
  5
3CF
330
1F
100
AcDbEntity
  8
0
 62
     0
100
AcDbSpline
 70
     0
 71
     3
 72
     8
 73
     4
 74
     0
 42
0.000000001
 43
0.0000001
 40
0.0
 40
0.0
 40
0.0
 40
0.0
 40
1.0
 40
1.0
 40
1.0
 40
1.0
 10
337.881
 20
389.569
 30
0.0
 10
337.881
 20
389.308
 30
0.0
 10
337.899
 20
389.304
 30
0.0
 10
338.321
 20
389.498
 30
0.0
  0
SPLINE
  5
3D0
330
1F
100
AcDbEntity
  8
0
 62
     0
100
AcDbSpline
 70
     0
 71
     3
 72
     8
 73
     4
 74
     0
 42
0.000000001
 43
0.0000001
 40
0.0
 40
0.0
 40
0.0
 40
0.0
 40
1.0
 40
1.0
 40
1.0
 40
1.0
 10
338.321
 20
389.498
 30
0.0
 10
338.498
 20
389.58
 30
0.0
 10
338.766
 20
389.841
 30
0.0
 10
338.913
 20
390.077
 30
0.0
  0
SPLINE
  5
3D1
330
1F
100
AcDbEntity
  8
0
 62
     0
100
AcDbSpline
 70
     0
 71
     3
 72
     8
 73
     4
 74
     0
 42
0.000000001
 43
0.0000001
 40
0.0
 40
0.0
 40
0.0
 40
0.0
 40
1.0
 40
1.0
 40
1.0
 40
1.0
 10
338.913
 20
390.077
 30
0.0
 10
339.385
 20
390.843
 30
0.0
 10
340.534
 20
391.319
 30
0.0
 10
340.534
 20
390.751
 30
0.0
  0
SPLINE
  5
3D2
330
1F
100
AcDbEntity
  8
0
 62
     0
100
AcDbSpline
 70
     0
 71
     3
 72
     8
 73
     4
 74
     0
 42
0.000000001
 43
0.0000001
 40
0.0
 40
0.0
 40
0.0
 40
0.0
 40
1.0
 40
1.0
 40
1.0
 40
1.0
 10
340.534
 20
390.751
 30
0.0
 10
340.534
 20
390.486
 30
0.0
 10
339.935
 20
389.922
 30
0.0
 10
339.517
 20
389.788
 30
0.0
  0
SPLINE
  5
3D3
330
1F
100
AcDbEntity
  8
0
 62
     0
100
AcDbSpline
 70
     0
 71
     3
 72
     8
 73
     4
 74
     0
 42
0.000000001
 43
0.0000001
 40
0.0
 40
0.0
 40
0.0
 40
0.0
 40
1.0
 40
1.0
 40
1.0
 40
1.0
 10
339.517
 20
389.788
 30
0.0
 10
339.147
 20
389.671
 30
0.0
 10
339.292
 20
389.407
 30
0.0
 10
339.71
 20
389.438
 30
0.0
  0
SPLINE
  5
3D4
330
1F
100
AcDbEntity
  8
0
 62
     0
100
AcDbSpline
 70
     0
 71
     3
 72
     8
 73
     4
 74
     0
 42
0.000000001
 43
0.0000001
 40
0.0
 40
0.0
 40
0.0
 40
0.0
 40
1.0
 40
1.0
 40
1.0
 40
1.0
 10
339.71
 20
389.438
 30
0.0
 10
339.944
 20
389.456
 30
0.0
 10
340.32
 20
389.714
 30
0.0
 10
340.854
 20
390.229
 30
0.0
  0
SPLINE
  5
3D5
330
1F
100
AcDbEntity
  8
0
 62
     0
100
AcDbSpline
 70
     0
 71
     3
 72
     8
 73
     4
 74
     0
 42
0.000000001
 43
0.0000001
 40
0.0
 40
0.0
 40
0.0
 40
0.0
 40
1.0
 40
1.0
 40
1.0
 40
1.0
 10
340.854
 20
390.229
 30
0.0
 10
341.707
 20
391.047
 30
0.0
 10
342.176
 20
391.213
 30
0.0
 10
342.176
 20
390.694
 30
0.0
  0
SPLINE
  5
3D6
330
1F
100
AcDbEntity
  8
0
 62
     0
100
AcDbSpline
 70
     0
 71
     3
 72
     8
 73
     4
 74
     0
 42
0.000000001
 43
0.0000001
 40
0.0
 40
0.0
 40
0.0
 40
0.0
 40
1.0
 40
1.0
 40
1.0
 40
1.0
 10
342.176
 20
390.694
 30
0.0
 10
342.176
 20
390.373
 30
0.0
 10
341.759
 20
389.911
 30
0.0
 10
341.573
 20
390.028
 30
0.0
  0
SPLINE
  5
3D7
330
1F
100
AcDbEntity
  8
0
 62
     0
100
AcDbSpline
 70
     0
 71
     3
 72
     8
 73
     4
 74
     0
 42
0.000000001
 43
0.0000001
 40
0.0
 40
0.0
 40
0.0
 40
0.0
 40
1.0
 40
1.0
 40
1.0
 40
1.0
 10
341.573
 20
390.028
 30
0.0
 10
341.412
 20
390.126
 30
0.0
 10
340.913
 20
389.749
 30
0.0
 10
340.913
 20
389.527
 30
0.0
  0
SPLINE
  5
3D8
330
1F
100
AcDbEntity
  8
0
 62
     0
100
AcDbSpline
 70
     0
 71
     3
 72
     8
 73
     4
 74
     0
 42
0.000000001
 43
0.0000001
 40
0.0
 40
0.0
 40
0.0
 40
0.0
 40
1.0
 40
1.0
 40
1.0
 40
1.0
 10
340.913
 20
389.527
 30
0.0
 10
340.913
 20
388.973
 30
0.0
 10
342.234
 20
389.378
 30
0.0
 10
342.364
 20
389.971
 30
0.0
  0
SPLINE
  5
3D9
330
1F
100
AcDbEntity
  8
0
 62
     0
100
AcDbSpline
 70
     0
 71
     3
 72
     8
 73
     4
 74
     0
 42
0.000000001
 43
0.0000001
 40
0.0
 40
0.0
 40
0.0
 40
0.0
 40
1.0
 40
1.0
 40
1.0
 40
1.0
 10
342.364
 20
389.971
 30
0.0
 10
342.481
 20
390.504
 30
0.0
 10
344.085
 20
392.564
 30
0.0
 10
344.419
 20
392.61
 30
0.0
  0
SPLINE
  5
3DA
330
1F
100
AcDbEntity
  8
0
 62
     0
100
AcDbSpline
 70
     0
 71
     3
 72
     8
 73
     4
 74
     0
 42
0.000000001
 43
0.0000001
 40
0.0
 40
0.0
 40
0.0
 40
0.0
 40
1.0
 40
1.0
 40
1.0
 40
1.0
 10
344.419
 20
392.61
 30
0.0
 10
344.576
 20
392.635
 30
0.0
 10
344.702
 20
392.603
 30
0.0
 10
344.702
 20
392.546
 30
0.0
  0
SPLINE
  5
3DB
330
1F
100
AcDbEntity
  8
0
 62
     0
100
AcDbSpline
 70
     0
 71
     3
 72
     8
 73
     4
 74
     0
 42
0.000000001
 43
0.0000001
 40
0.0
 40
0.0
 40
0.0
 40
0.0
 40
1.0
 40
1.0
 40
1.0
 40
1.0
 10
344.702
 20
392.546
 30
0.0
 10
344.702
 20
392.486
 30
0.0
 10
344.248
 20
391.855
 30
0.0
 10
343.692
 20
391.142
 30
0.0
  0
SPLINE
  5
3DC
330
1F
100
AcDbEntity
  8
0
 62
     0
100
AcDbSpline
 70
     0
 71
     3
 72
     8
 73
     4
 74
     0
 42
0.000000001
 43
0.0000001
 40
0.0
 40
0.0
 40
0.0
 40
0.0
 40
1.0
 40
1.0
 40
1.0
 40
1.0
 10
343.692
 20
391.142
 30
0.0
 10
343.137
 20
390.426
 30
0.0
 10
342.681
 20
389.812
 30
0.0
 10
342.681
 20
389.777
 30
0.0
  0
SPLINE
  5
3DD
330
1F
100
AcDbEntity
  8
0
 62
     0
100
AcDbSpline
 70
     0
 71
     3
 72
     8
 73
     4
 74
     0
 42
0.000000001
 43
0.0000001
 40
0.0
 40
0.0
 40
0.0
 40
0.0
 40
1.0
 40
1.0
 40
1.0
 40
1.0
 10
342.681
 20
389.777
 30
0.0
 10
342.681
 20
389.738
 30
0.0
 10
342.979
 20
389.968
 30
0.0
 10
343.342
 20
390.285
 30
0.0
  0
SPLINE
  5
3DE
330
1F
100
AcDbEntity
  8
0
 62
     0
100
AcDbSpline
 70
     0
 71
     3
 72
     8
 73
     4
 74
     0
 42
0.000000001
 43
0.0000001
 40
0.0
 40
0.0
 40
0.0
 40
0.0
 40
1.0
 40
1.0
 40
1.0
 40
1.0
 10
343.342
 20
390.285
 30
0.0
 10
343.706
 20
390.606
 30
0.0
 10
344.073
 20
390.864
 30
0.0
 10
344.157
 20
390.864
 30
0.0
  0
SPLINE
  5
3DF
330
1F
100
AcDbEntity
  8
0
 62
     0
100
AcDbSpline
 70
     0
 71
     3
 72
     8
 73
     4
 74
     0
 42
0.000000001
 43
0.0000001
 40
0.0
 40
0.0
 40
0.0
 40
0.0
 40
1.0
 40
1.0
 40
1.0
 40
1.0
 10
344.157
 20
390.864
 30
0.0
 10
344.463
 20
390.864
 30
0.0
 10
344.457
 20
390.603
 30
0.0
 10
344.142
 20
390.19
 30
0.0
  0
SPLINE
  5
3E0
330
1F
100
AcDbEntity
  8
0
 62
     0
100
AcDbSpline
 70
     0
 71
     3
 72
     8
 73
     4
 74
     0
 42
0.000000001
 43
0.0000001
 40
0.0
 40
0.0
 40
0.0
 40
0.0
 40
1.0
 40
1.0
 40
1.0
 40
1.0
 10
344.142
 20
390.19
 30
0.0
 10
343.648
 20
389.544
 30
0.0
 10
343.728
 20
389.273
 30
0.0
 10
344.296
 20
389.671
 30
0.0
  0
SPLINE
  5
3E1
330
1F
100
AcDbEntity
  8
0
 62
     0
100
AcDbSpline
 70
     0
 71
     3
 72
     8
 73
     4
 74
     0
 42
0.000000001
 43
0.0000001
 40
0.0
 40
0.0
 40
0.0
 40
0.0
 40
1.0
 40
1.0
 40
1.0
 40
1.0
 10
344.296
 20
389.671
 30
0.0
 10
344.718
 20
389.968
 30
0.0
 10
344.634
 20
389.707
 30
0.0
 10
344.159
 20
389.248
 30
0.0
  0
SPLINE
  5
3E2
330
1F
100
AcDbEntity
  8
0
 62
     0
100
AcDbSpline
 70
     0
 71
     3
 72
     8
 73
     4
 74
     0
 42
0.000000001
 43
0.0000001
 40
0.0
 40
0.0
 40
0.0
 40
0.0
 40
1.0
 40
1.0
 40
1.0
 40
1.0
 10
344.159
 20
389.248
 30
0.0
 10
343.437
 20
388.546
 30
0.0
 10
343.047
 20
388.846
 30
0.0
 10
343.512
 20
389.745
 30
0.0
  0
SPLINE
  5
3E3
330
1F
100
AcDbEntity
  8
0
 62
     0
100
AcDbSpline
 70
     0
 71
     3
 72
     8
 73
     4
 74
     0
 42
0.000000001
 43
0.0000001
 40
0.0
 40
0.0
 40
0.0
 40
0.0
 40
1.0
 40
1.0
 40
1.0
 40
1.0
 10
343.512
 20
389.745
 30
0.0
 10
343.83
 20
390.363
 30
0.0
 10
343.64
 20
390.292
 30
0.0
 10
343.115
 20
389.604
 30
0.0
  0
SPLINE
  5
3E4
330
1F
100
AcDbEntity
  8
0
 62
     0
100
AcDbSpline
 70
     0
 71
     3
 72
     8
 73
     4
 74
     0
 42
0.000000001
 43
0.0000001
 40
0.0
 40
0.0
 40
0.0
 40
0.0
 40
1.0
 40
1.0
 40
1.0
 40
1.0
 10
343.115
 20
389.604
 30
0.0
 10
342.584
 20
388.909
 30
0.0
 10
342.5
 20
388.863
 30
0.0
 10
342.322
 20
389.181
 30
0.0
  0
SPLINE
  5
3E5
330
1F
100
AcDbEntity
  8
0
 62
     0
100
AcDbSpline
 70
     0
 71
     3
 72
     8
 73
     4
 74
     0
 42
0.000000001
 43
0.0000001
 40
0.0
 40
0.0
 40
0.0
 40
0.0
 40
1.0
 40
1.0
 40
1.0
 40
1.0
 10
342.322
 20
389.181
 30
0.0
 10
342.215
 20
389.371
 30
0.0
 10
342.163
 20
389.361
 30
0.0
 10
341.802
 20
389.057
 30
0.0
  0
SPLINE
  5
3E6
330
1F
100
AcDbEntity
  8
0
 62
     0
100
AcDbSpline
 70
     0
 71
     3
 72
     8
 73
     4
 74
     0
 42
0.000000001
 43
0.0000001
 40
0.0
 40
0.0
 40
0.0
 40
0.0
 40
1.0
 40
1.0
 40
1.0
 40
1.0
 10
341.802
 20
389.057
 30
0.0
 10
341.284
 20
388.62
 30
0.0
 10
340.964
 20
388.627
 30
0.0
 10
340.687
 20
389.082
 30
0.0
  0
LINE
  5
3E7
330
1F
100
AcDbEntity
  8
0
 62
     0
100
AcDbLine
 10
340.687
 20
389.082
 30
0.0
 11
340.465
 21
389.445
 31
0.0
  0
LINE
  5
3E8
330
1F
100
AcDbEntity
  8
0
 62
     0
100
AcDbLine
 10
340.465
 20
389.445
 30
0.0
 11
340.089
 21
389.146
 31
0.0
  0
SPLINE
  5
3E9
330
1F
100
AcDbEntity
  8
0
 62
     0
100
AcDbSpline
 70
     0
 71
     3
 72
     8
 73
     4
 74
     0
 42
0.000000001
 43
0.0000001
 40
0.0
 40
0.0
 40
0.0
 40
0.0
 40
1.0
 40
1.0
 40
1.0
 40
1.0
 10
340.089
 20
389.146
 30
0.0
 10
339.585
 20
388.74
 30
0.0
 10
339.056
 20
388.747
 30
0.0
 10
338.871
 20
389.156
 30
0.0
  0
LINE
  5
3EA
330
1F
100
AcDbEntity
  8
0
 62
     0
100
AcDbLine
 10
338.871
 20
389.156
 30
0.0
 11
338.727
 21
389.467
 31
0.0
  0
LINE
  5
3EB
330
1F
100
AcDbEntity
  8
0
 62
     0
100
AcDbLine
 10
338.727
 20
389.467
 30
0.0
 11
338.3
 21
389.093
 31
0.0
  0
SPLINE
  5
3EC
330
1F
100
AcDbEntity
  8
0
 62
     0
100
AcDbSpline
 70
     0
 71
     3
 72
     8
 73
     4
 74
     0
 42
0.000000001
 43
0.0000001
 40
0.0
 40
0.0
 40
0.0
 40
0.0
 40
1.0
 40
1.0
 40
1.0
 40
1.0
 10
338.3
 20
389.093
 30
0.0
 10
337.827
 20
388.68
 30
0.0
 10
337.532
 20
388.616
 30
0.0
 10
337.42
 20
388.909
 30
0.0
  0
LINE
  5
3ED
330
1F
100
AcDbEntity
  8
0
 62
     0
100
AcDbLine
 10
337.42
 20
388.909
 30
0.0
 11
337.42
 21
388.909
 31
0.0
  0
SPLINE
  5
3EE
330
1F
100
AcDbEntity
  8
0
 62
     0
100
AcDbSpline
 70
     0
 71
     3
 72
     8
 73
     4
 74
     0
 42
0.000000001
 43
0.0000001
 40
0.0
 40
0.0
 40
0.0
 40
0.0
 40
1.0
 40
1.0
 40
1.0
 40
1.0
 10
339.901
 20
390.296
 30
0.0
 10
340.065
 20
390.469
 30
0.0
 10
340.159
 20
390.613
 30
0.0
 10
340.11
 20
390.613
 30
0.0
  0
SPLINE
  5
3EF
330
1F
100
AcDbEntity
  8
0
 62
     0
100
AcDbSpline
 70
     0
 71
     3
 72
     8
 73
     4
 74
     0
 42
0.000000001
 43
0.0000001
 40
0.0
 40
0.0
 40
0.0
 40
0.0
 40
1.0
 40
1.0
 40
1.0
 40
1.0
 10
340.11
 20
390.613
 30
0.0
 10
339.951
 20
390.613
 30
0.0
 10
339.397
 20
390.207
 30
0.0
 10
339.397
 20
390.091
 30
0.0
  0
SPLINE
  5
3F0
330
1F
100
AcDbEntity
  8
0
 62
     0
100
AcDbSpline
 70
     0
 71
     3
 72
     8
 73
     4
 74
     0
 42
0.000000001
 43
0.0000001
 40
0.0
 40
0.0
 40
0.0
 40
0.0
 40
1.0
 40
1.0
 40
1.0
 40
1.0
 10
339.397
 20
390.091
 30
0.0
 10
339.397
 20
389.894
 30
0.0
 10
339.6
 20
389.975
 30
0.0
 10
339.901
 20
390.296
 30
0.0
  0
LINE
  5
3F1
330
1F
100
AcDbEntity
  8
0
 62
     0
100
AcDbLine
 10
339.901
 20
390.296
 30
0.0
 11
339.901
 21
390.296
 31
0.0
  0
SPLINE
  5
3F2
330
1F
100
AcDbEntity
  8
0
 62
     0
100
AcDbSpline
 70
     0
 71
     3
 72
     8
 73
     4
 74
     0
 42
0.000000001
 43
0.0000001
 40
0.0
 40
0.0
 40
0.0
 40
0.0
 40
1.0
 40
1.0
 40
1.0
 40
1.0
 10
335.606
 20
389.005
 30
0.0
 10
335.606
 20
389.234
 30
0.0
 10
335.959
 20
389.544
 30
0.0
 10
336.079
 20
389.424
 30
0.0
  0
SPLINE
  5
3F3
330
1F
100
AcDbEntity
  8
0
 62
     0
100
AcDbSpline
 70
     0
 71
     3
 72
     8
 73
     4
 74
     0
 42
0.000000001
 43
0.0000001
 40
0.0
 40
0.0
 40
0.0
 40
0.0
 40
1.0
 40
1.0
 40
1.0
 40
1.0
 10
336.079
 20
389.424
 30
0.0
 10
336.185
 20
389.318
 30
0.0
 10
335.963
 20
388.941
 30
0.0
 10
335.755
 20
388.87
 30
0.0
  0
SPLINE
  5
3F4
330
1F
100
AcDbEntity
  8
0
 62
     0
100
AcDbSpline
 70
     0
 71
     3
 72
     8
 73
     4
 74
     0
 42
0.000000001
 43
0.0000001
 40
0.0
 40
0.0
 40
0.0
 40
0.0
 40
1.0
 40
1.0
 40
1.0
 40
1.0
 10
335.755
 20
388.87
 30
0.0
 10
335.674
 20
388.846
 30
0.0
 10
335.606
 20
388.906
 30
0.0
 10
335.606
 20
389.005
 30
0.0
  0
LINE
  5
3F5
330
1F
100
AcDbEntity
  8
0
 62
     0
100
AcDbLine
 10
335.606
 20
389.005
 30
0.0
 11
335.606
 21
389.005
 31
0.0
  0
SPLINE
  5
3F6
330
1F
100
AcDbEntity
  8
0
 62
     1
100
AcDbSpline
 70
     0
 71
     3
 72
     8
 73
     4
 74
     0
 42
0.000000001
 43
0.0000001
 40
0.0
 40
0.0
 40
0.0
 40
0.0
 40
1.0
 40
1.0
 40
1.0
 40
1.0
 10
332.674
 20
367.587
 30
0.0
 10
325.354
 20
366.713
 30
0.0
 10
319.581
 20
360.941
 30
0.0
 10
318.706
 20
353.621
 30
0.0
  0
LINE
  5
3F7
330
1F
100
AcDbEntity
  8
0
 62
     1
100
AcDbLine
 10
333.515
 20
366.808
 30
0.0
 11
333.515
 21
366.367
 31
0.0
  0
SPLINE
  5
3F8
330
1F
100
AcDbEntity
  8
0
 62
     1
100
AcDbSpline
 70
     0
 71
     3
 72
     8
 73
     4
 74
     0
 42
0.000000001
 43
0.0000001
 40
0.0
 40
0.0
 40
0.0
 40
0.0
 40
1.0
 40
1.0
 40
1.0
 40
1.0
 10
332.862
 20
365.626
 30
0.0
 10
326.479
 20
364.843
 30
0.0
 10
321.449
 20
359.816
 30
0.0
 10
320.667
 20
353.434
 30
0.0
  0
LINE
  5
3F9
330
1F
100
AcDbEntity
  8
0
 62
     1
100
AcDbLine
 10
319.863
 20
352.712
 30
0.0
 11
319.419
 21
352.712
 31
0.0
  0
SPLINE
  5
3FA
330
1F
100
AcDbEntity
  8
0
 62
     1
100
AcDbSpline
 70
     0
 71
     3
 72
     8
 73
     4
 74
     0
 42
0.000000001
 43
0.0000001
 40
0.0
 40
0.0
 40
0.0
 40
0.0
 40
1.0
 40
1.0
 40
1.0
 40
1.0
 10
348.462
 20
353.43
 30
0.0
 10
347.681
 20
359.812
 30
0.0
 10
342.651
 20
364.843
 30
0.0
 10
336.269
 20
365.626
 30
0.0
  0
LINE
  5
3FB
330
1F
100
AcDbEntity
  8
0
 62
     1
100
AcDbLine
 10
335.548
 20
366.367
 30
0.0
 11
335.548
 21
366.808
 31
0.0
  0
SPLINE
  5
3FC
330
1F
100
AcDbEntity
  8
0
 62
     1
100
AcDbSpline
 70
     0
 71
     3
 72
     8
 73
     4
 74
     0
 42
0.000000001
 43
0.0000001
 40
0.0
 40
0.0
 40
0.0
 40
0.0
 40
1.0
 40
1.0
 40
1.0
 40
1.0
 10
344.362
 20
364.338
 30
0.0
 10
342.072
 20
366.12
 30
0.0
 10
339.338
 20
367.242
 30
0.0
 10
336.456
 20
367.587
 30
0.0
  0
SPLINE
  5
3FD
330
1F
100
AcDbEntity
  8
0
 62
     1
100
AcDbSpline
 70
     0
 71
     3
 72
     8
 73
     4
 74
     0
 42
0.000000001
 43
0.0000001
 40
0.0
 40
0.0
 40
0.0
 40
0.0
 40
1.0
 40
1.0
 40
1.0
 40
1.0
 10
350.421
 20
353.621
 30
0.0
 10
350.076
 20
356.521
 30
0.0
 10
348.939
 20
359.276
 30
0.0
 10
347.136
 20
361.576
 30
0.0
  0
LINE
  5
3FE
330
1F
100
AcDbEntity
  8
0
 62
     1
100
AcDbLine
 10
349.645
 20
352.712
 30
0.0
 11
349.2
 21
352.712
 31
0.0
  0
SPLINE
  5
3FF
330
1F
100
AcDbEntity
  8
0
 62
     1
100
AcDbSpline
 70
     0
 71
     3
 72
     8
 73
     4
 74
     0
 42
0.000000001
 43
0.0000001
 40
0.0
 40
0.0
 40
0.0
 40
0.0
 40
1.0
 40
1.0
 40
1.0
 40
1.0
 10
332.641
 20
363.545
 30
0.0
 10
327.561
 20
362.716
 30
0.0
 10
323.577
 20
358.733
 30
0.0
 10
322.75
 20
353.653
 30
0.0
  0
LINE
  5
400
330
1F
100
AcDbEntity
  8
0
 62
     1
100
AcDbLine
 10
333.515
 20
362.744
 30
0.0
 11
333.515
 21
362.366
 31
0.0
  0
SPLINE
  5
401
330
1F
100
AcDbEntity
  8
0
 62
     1
100
AcDbSpline
 70
     0
 71
     3
 72
     8
 73
     4
 74
     0
 42
0.000000001
 43
0.0000001
 40
0.0
 40
0.0
 40
0.0
 40
0.0
 40
1.0
 40
1.0
 40
1.0
 40
1.0
 10
332.897
 20
361.59
 30
0.0
 10
328.701
 20
360.881
 30
0.0
 10
325.413
 20
357.593
 30
0.0
 10
324.703
 20
353.395
 30
0.0
  0
LINE
  5
402
330
1F
100
AcDbEntity
  8
0
 62
     1
100
AcDbLine
 10
323.864
 20
352.712
 30
0.0
 11
323.483
 21
352.712
 31
0.0
  0
SPLINE
  5
403
330
1F
100
AcDbEntity
  8
0
 62
     1
100
AcDbSpline
 70
     0
 71
     3
 72
     8
 73
     4
 74
     0
 42
0.000000001
 43
0.0000001
 40
0.0
 40
0.0
 40
0.0
 40
0.0
 40
1.0
 40
1.0
 40
1.0
 40
1.0
 10
336.229
 20
341.866
 30
0.0
 10
340.426
 20
342.575
 30
0.0
 10
343.715
 20
345.863
 30
0.0
 10
344.424
 20
350.059
 30
0.0
  0
LINE
  5
404
330
1F
100
AcDbEntity
  8
0
 62
     1
100
AcDbLine
 10
345.2
 20
350.681
 30
0.0
 11
345.58
 21
350.681
 31
0.0
  0
SPLINE
  5
405
330
1F
100
AcDbEntity
  8
0
 62
     1
100
AcDbSpline
 70
     0
 71
     3
 72
     8
 73
     4
 74
     0
 42
0.000000001
 43
0.0000001
 40
0.0
 40
0.0
 40
0.0
 40
0.0
 40
1.0
 40
1.0
 40
1.0
 40
1.0
 10
336.485
 20
339.914
 30
0.0
 10
341.566
 20
340.741
 30
0.0
 10
345.549
 20
344.722
 30
0.0
 10
346.378
 20
349.801
 30
0.0
  0
LINE
  5
406
330
1F
100
AcDbEntity
  8
0
 62
     1
100
AcDbLine
 10
335.548
 20
340.647
 30
0.0
 11
335.548
 21
341.029
 31
0.0
  0
SPLINE
  5
407
330
1F
100
AcDbEntity
  8
0
 62
     1
100
AcDbSpline
 70
     0
 71
     3
 72
     8
 73
     4
 74
     0
 42
0.000000001
 43
0.0000001
 40
0.0
 40
0.0
 40
0.0
 40
0.0
 40
1.0
 40
1.0
 40
1.0
 40
1.0
 10
332.572
 20
359.445
 30
0.0
 10
329.765
 20
358.719
 30
0.0
 10
327.574
 20
356.528
 30
0.0
 10
326.847
 20
353.723
 30
0.0
  0
LINE
  5
408
330
1F
100
AcDbEntity
  8
0
 62
     1
100
AcDbLine
 10
333.515
 20
358.68
 30
0.0
 11
333.515
 21
358.235
 31
0.0
  0
SPLINE
  5
409
330
1F
100
AcDbEntity
  8
0
 62
     1
100
AcDbSpline
 70
     0
 71
     3
 72
     8
 73
     4
 74
     0
 42
0.000000001
 43
0.0000001
 40
0.0
 40
0.0
 40
0.0
 40
0.0
 40
1.0
 40
1.0
 40
1.0
 40
1.0
 10
332.975
 20
357.516
 30
0.0
 10
330.934
 20
356.955
 30
0.0
 10
329.339
 20
355.36
 30
0.0
 10
328.778
 20
353.318
 30
0.0
  0
LINE
  5
40A
330
1F
100
AcDbEntity
  8
0
 62
     1
100
AcDbLine
 10
327.991
 20
352.712
 30
0.0
 11
327.547
 21
352.712
 31
0.0
  0
SPLINE
  5
40B
330
1F
100
AcDbEntity
  8
0
 62
     1
100
AcDbSpline
 70
     0
 71
     3
 72
     8
 73
     4
 74
     0
 42
0.000000001
 43
0.0000001
 40
0.0
 40
0.0
 40
0.0
 40
0.0
 40
1.0
 40
1.0
 40
1.0
 40
1.0
 10
336.152
 20
345.941
 30
0.0
 10
338.194
 20
346.501
 30
0.0
 10
339.79
 20
348.096
 30
0.0
 10
340.35
 20
350.139
 30
0.0
  0
LINE
  5
40C
330
1F
100
AcDbEntity
  8
0
 62
     1
100
AcDbLine
 10
341.073
 20
350.681
 30
0.0
 11
341.516
 21
350.681
 31
0.0
  0
SPLINE
  5
40D
330
1F
100
AcDbEntity
  8
0
 62
     1
100
AcDbSpline
 70
     0
 71
     3
 72
     8
 73
     4
 74
     0
 42
0.000000001
 43
0.0000001
 40
0.0
 40
0.0
 40
0.0
 40
0.0
 40
1.0
 40
1.0
 40
1.0
 40
1.0
 10
336.556
 20
344.012
 30
0.0
 10
339.361
 20
344.736
 30
0.0
 10
341.554
 20
346.928
 30
0.0
 10
342.28
 20
349.734
 30
0.0
  0
LINE
  5
40E
330
1F
100
AcDbEntity
  8
0
 62
     1
100
AcDbLine
 10
335.548
 20
344.711
 30
0.0
 11
335.548
 21
345.156
 31
0.0
  0
SPLINE
  5
40F
330
1F
100
AcDbEntity
  8
0
 62
     1
100
AcDbSpline
 70
     0
 71
     3
 72
     8
 73
     4
 74
     0
 42
0.000000001
 43
0.0000001
 40
0.0
 40
0.0
 40
0.0
 40
0.0
 40
1.0
 40
1.0
 40
1.0
 40
1.0
 10
326.847
 20
349.736
 30
0.0
 10
327.572
 20
346.929
 30
0.0
 10
329.763
 20
344.737
 30
0.0
 10
332.57
 20
344.012
 30
0.0
  0
LINE
  5
410
330
1F
100
AcDbEntity
  8
0
 62
     1
100
AcDbLine
 10
327.547
 20
350.681
 30
0.0
 11
327.991
 21
350.681
 31
0.0
  0
SPLINE
  5
411
330
1F
100
AcDbEntity
  8
0
 62
     1
100
AcDbSpline
 70
     0
 71
     3
 72
     8
 73
     4
 74
     0
 42
0.000000001
 43
0.0000001
 40
0.0
 40
0.0
 40
0.0
 40
0.0
 40
1.0
 40
1.0
 40
1.0
 40
1.0
 10
328.777
 20
350.14
 30
0.0
 10
329.337
 20
348.098
 30
0.0
 10
330.932
 20
346.502
 30
0.0
 10
332.974
 20
345.941
 30
0.0
  0
LINE
  5
412
330
1F
100
AcDbEntity
  8
0
 62
     1
100
AcDbLine
 10
333.515
 20
345.156
 30
0.0
 11
333.515
 21
344.711
 31
0.0
  0
SPLINE
  5
413
330
1F
100
AcDbEntity
  8
0
 62
     1
100
AcDbSpline
 70
     0
 71
     3
 72
     8
 73
     4
 74
     0
 42
0.000000001
 43
0.0000001
 40
0.0
 40
0.0
 40
0.0
 40
0.0
 40
1.0
 40
1.0
 40
1.0
 40
1.0
 10
340.35
 20
353.318
 30
0.0
 10
339.79
 20
355.36
 30
0.0
 10
338.194
 20
356.955
 30
0.0
 10
336.153
 20
357.516
 30
0.0
  0
LINE
  5
414
330
1F
100
AcDbEntity
  8
0
 62
     1
100
AcDbLine
 10
335.548
 20
358.235
 30
0.0
 11
335.548
 21
358.68
 31
0.0
  0
SPLINE
  5
415
330
1F
100
AcDbEntity
  8
0
 62
     1
100
AcDbSpline
 70
     0
 71
     3
 72
     8
 73
     4
 74
     0
 42
0.000000001
 43
0.0000001
 40
0.0
 40
0.0
 40
0.0
 40
0.0
 40
1.0
 40
1.0
 40
1.0
 40
1.0
 10
342.28
 20
353.72
 30
0.0
 10
341.555
 20
356.528
 30
0.0
 10
339.364
 20
358.719
 30
0.0
 10
336.557
 20
359.442
 30
0.0
  0
LINE
  5
416
330
1F
100
AcDbEntity
  8
0
 62
     1
100
AcDbLine
 10
341.516
 20
352.712
 30
0.0
 11
341.073
 21
352.712
 31
0.0
  0
SPLINE
  5
417
330
1F
100
AcDbEntity
  8
0
 62
     1
100
AcDbSpline
 70
     0
 71
     3
 72
     8
 73
     4
 74
     0
 42
0.000000001
 43
0.0000001
 40
0.0
 40
0.0
 40
0.0
 40
0.0
 40
1.0
 40
1.0
 40
1.0
 40
1.0
 10
322.749
 20
349.805
 30
0.0
 10
323.576
 20
344.725
 30
0.0
 10
327.558
 20
340.742
 30
0.0
 10
332.639
 20
339.914
 30
0.0
  0
LINE
  5
418
330
1F
100
AcDbEntity
  8
0
 62
     1
100
AcDbLine
 10
323.483
 20
350.681
 30
0.0
 11
323.864
 21
350.681
 31
0.0
  0
SPLINE
  5
419
330
1F
100
AcDbEntity
  8
0
 62
     1
100
AcDbSpline
 70
     0
 71
     3
 72
     8
 73
     4
 74
     0
 42
0.000000001
 43
0.0000001
 40
0.0
 40
0.0
 40
0.0
 40
0.0
 40
1.0
 40
1.0
 40
1.0
 40
1.0
 10
324.703
 20
350.062
 30
0.0
 10
325.411
 20
345.865
 30
0.0
 10
328.699
 20
342.578
 30
0.0
 10
332.896
 20
341.866
 30
0.0
  0
LINE
  5
41A
330
1F
100
AcDbEntity
  8
0
 62
     1
100
AcDbLine
 10
333.515
 20
341.029
 30
0.0
 11
333.515
 21
340.647
 31
0.0
  0
SPLINE
  5
41B
330
1F
100
AcDbEntity
  8
0
 62
     1
100
AcDbSpline
 70
     0
 71
     3
 72
     8
 73
     4
 74
     0
 42
0.000000001
 43
0.0000001
 40
0.0
 40
0.0
 40
0.0
 40
0.0
 40
1.0
 40
1.0
 40
1.0
 40
1.0
 10
344.425
 20
353.395
 30
0.0
 10
343.716
 20
357.59
 30
0.0
 10
340.429
 20
360.881
 30
0.0
 10
336.232
 20
361.59
 30
0.0
  0
LINE
  5
41C
330
1F
100
AcDbEntity
  8
0
 62
     1
100
AcDbLine
 10
335.548
 20
362.366
 30
0.0
 11
335.548
 21
362.744
 31
0.0
  0
SPLINE
  5
41D
330
1F
100
AcDbEntity
  8
0
 62
     1
100
AcDbSpline
 70
     0
 71
     3
 72
     8
 73
     4
 74
     0
 42
0.000000001
 43
0.0000001
 40
0.0
 40
0.0
 40
0.0
 40
0.0
 40
1.0
 40
1.0
 40
1.0
 40
1.0
 10
346.378
 20
353.653
 30
0.0
 10
345.551
 20
358.733
 30
0.0
 10
341.569
 20
362.712
 30
0.0
 10
336.489
 20
363.541
 30
0.0
  0
LINE
  5
41E
330
1F
100
AcDbEntity
  8
0
 62
     1
100
AcDbLine
 10
345.58
 20
352.712
 30
0.0
 11
345.2
 21
352.712
 31
0.0
  0
SPLINE
  5
41F
330
1F
100
AcDbEntity
  8
0
 62
     1
100
AcDbSpline
 70
     0
 71
     3
 72
     8
 73
     4
 74
     0
 42
0.000000001
 43
0.0000001
 40
0.0
 40
0.0
 40
0.0
 40
0.0
 40
1.0
 40
1.0
 40
1.0
 40
1.0
 10
336.265
 20
337.83
 30
0.0
 10
342.648
 20
338.612
 30
0.0
 10
347.678
 20
343.64
 30
0.0
 10
348.462
 20
350.022
 30
0.0
  0
LINE
  5
420
330
1F
100
AcDbEntity
  8
0
 62
     1
100
AcDbLine
 10
349.2
 20
350.681
 30
0.0
 11
349.645
 21
350.681
 31
0.0
  0
SPLINE
  5
421
330
1F
100
AcDbEntity
  8
0
 62
     1
100
AcDbSpline
 70
     0
 71
     3
 72
     8
 73
     4
 74
     0
 42
0.000000001
 43
0.0000001
 40
0.0
 40
0.0
 40
0.0
 40
0.0
 40
1.0
 40
1.0
 40
1.0
 40
1.0
 10
347.135
 20
341.878
 30
0.0
 10
348.937
 20
344.179
 30
0.0
 10
350.074
 20
346.931
 30
0.0
 10
350.421
 20
349.834
 30
0.0
  0
SPLINE
  5
422
330
1F
100
AcDbEntity
  8
0
 62
     1
100
AcDbSpline
 70
     0
 71
     3
 72
     8
 73
     4
 74
     0
 42
0.000000001
 43
0.0000001
 40
0.0
 40
0.0
 40
0.0
 40
0.0
 40
1.0
 40
1.0
 40
1.0
 40
1.0
 10
336.454
 20
335.871
 30
0.0
 10
339.335
 20
336.214
 30
0.0
 10
342.069
 20
337.336
 30
0.0
 10
344.361
 20
339.116
 30
0.0
  0
LINE
  5
423
330
1F
100
AcDbEntity
  8
0
 62
     1
100
AcDbLine
 10
335.548
 20
336.583
 30
0.0
 11
335.548
 21
337.028
 31
0.0
  0
SPLINE
  5
424
330
1F
100
AcDbEntity
  8
0
 62
     1
100
AcDbSpline
 70
     0
 71
     3
 72
     8
 73
     4
 74
     0
 42
0.000000001
 43
0.0000001
 40
0.0
 40
0.0
 40
0.0
 40
0.0
 40
1.0
 40
1.0
 40
1.0
 40
1.0
 10
318.706
 20
349.838
 30
0.0
 10
319.578
 20
342.517
 30
0.0
 10
325.349
 20
336.744
 30
0.0
 10
332.669
 20
335.871
 30
0.0
  0
LINE
  5
425
330
1F
100
AcDbEntity
  8
0
 62
     1
100
AcDbLine
 10
319.419
 20
350.681
 30
0.0
 11
319.863
 21
350.681
 31
0.0
  0
SPLINE
  5
426
330
1F
100
AcDbEntity
  8
0
 62
     1
100
AcDbSpline
 70
     0
 71
     3
 72
     8
 73
     4
 74
     0
 42
0.000000001
 43
0.0000001
 40
0.0
 40
0.0
 40
0.0
 40
0.0
 40
1.0
 40
1.0
 40
1.0
 40
1.0
 10
320.665
 20
350.026
 30
0.0
 10
321.448
 20
343.643
 30
0.0
 10
326.476
 20
338.613
 30
0.0
 10
332.86
 20
337.83
 30
0.0
  0
LINE
  5
427
330
1F
100
AcDbEntity
  8
0
 62
     1
100
AcDbLine
 10
333.515
 20
337.028
 30
0.0
 11
333.515
 21
336.583
 31
0.0
  0
SPLINE
  5
428
330
1F
100
AcDbEntity
  8
0
 62
     1
100
AcDbSpline
 70
     0
 71
     3
 72
     8
 73
     4
 74
     0
 42
0.000000001
 43
0.0000001
 40
0.0
 40
0.0
 40
0.0
 40
0.0
 40
1.0
 40
1.0
 40
1.0
 40
1.0
 10
333.515
 20
366.776
 30
0.0
 10
333.515
 20
367.005
 30
0.0
 10
333.419
 20
367.22
 30
0.0
 10
333.25
 20
367.372
 30
0.0
  0
SPLINE
  5
429
330
1F
100
AcDbEntity
  8
0
 62
     1
100
AcDbSpline
 70
     0
 71
     3
 72
     8
 73
     4
 74
     0
 42
0.000000001
 43
0.0000001
 40
0.0
 40
0.0
 40
0.0
 40
0.0
 40
1.0
 40
1.0
 40
1.0
 40
1.0
 10
333.25
 20
367.372
 30
0.0
 10
333.08
 20
367.52
 30
0.0
 10
332.854
 20
367.594
 30
0.0
 10
332.628
 20
367.566
 30
0.0
  0
SPLINE
  5
42A
330
1F
100
AcDbEntity
  8
0
 62
     1
100
AcDbSpline
 70
     0
 71
     3
 72
     8
 73
     4
 74
     0
 42
0.000000001
 43
0.0000001
 40
0.0
 40
0.0
 40
0.0
 40
0.0
 40
1.0
 40
1.0
 40
1.0
 40
1.0
 10
332.818
 20
365.608
 30
0.0
 10
333.217
 20
365.658
 30
0.0
 10
333.515
 20
365.996
 30
0.0
 10
333.515
 20
366.399
 30
0.0
  0
SPLINE
  5
42B
330
1F
100
AcDbEntity
  8
0
 62
     1
100
AcDbSpline
 70
     0
 71
     3
 72
     8
 73
     4
 74
     0
 42
0.000000001
 43
0.0000001
 40
0.0
 40
0.0
 40
0.0
 40
0.0
 40
1.0
 40
1.0
 40
1.0
 40
1.0
 10
319.832
 20
352.712
 30
0.0
 10
320.233
 20
352.712
 30
0.0
 10
320.57
 20
353.011
 30
0.0
 10
320.62
 20
353.409
 30
0.0
  0
SPLINE
  5
42C
330
1F
100
AcDbEntity
  8
0
 62
     1
100
AcDbSpline
 70
     0
 71
     3
 72
     8
 73
     4
 74
     0
 42
0.000000001
 43
0.0000001
 40
0.0
 40
0.0
 40
0.0
 40
0.0
 40
1.0
 40
1.0
 40
1.0
 40
1.0
 10
318.663
 20
353.6
 30
0.0
 10
318.636
 20
353.374
 30
0.0
 10
318.707
 20
353.148
 30
0.0
 10
318.857
 20
352.979
 30
0.0
  0
SPLINE
  5
42D
330
1F
100
AcDbEntity
  8
0
 62
     1
100
AcDbSpline
 70
     0
 71
     3
 72
     8
 73
     4
 74
     0
 42
0.000000001
 43
0.0000001
 40
0.0
 40
0.0
 40
0.0
 40
0.0
 40
1.0
 40
1.0
 40
1.0
 40
1.0
 10
318.857
 20
352.979
 30
0.0
 10
319.007
 20
352.81
 30
0.0
 10
319.224
 20
352.713
 30
0.0
 10
319.45
 20
352.712
 30
0.0
  0
SPLINE
  5
42E
330
1F
100
AcDbEntity
  8
0
 62
     1
100
AcDbSpline
 70
     0
 71
     3
 72
     8
 73
     4
 74
     0
 42
0.000000001
 43
0.0000001
 40
0.0
 40
0.0
 40
0.0
 40
0.0
 40
1.0
 40
1.0
 40
1.0
 40
1.0
 10
335.548
 20
366.399
 30
0.0
 10
335.548
 20
365.996
 30
0.0
 10
335.847
 20
365.658
 30
0.0
 10
336.246
 20
365.608
 30
0.0
  0
SPLINE
  5
42F
330
1F
100
AcDbEntity
  8
0
 62
     1
100
AcDbSpline
 70
     0
 71
     3
 72
     8
 73
     4
 74
     0
 42
0.000000001
 43
0.0000001
 40
0.0
 40
0.0
 40
0.0
 40
0.0
 40
1.0
 40
1.0
 40
1.0
 40
1.0
 10
336.436
 20
367.566
 30
0.0
 10
336.211
 20
367.594
 30
0.0
 10
335.985
 20
367.52
 30
0.0
 10
335.816
 20
367.372
 30
0.0
  0
SPLINE
  5
430
330
1F
100
AcDbEntity
  8
0
 62
     1
100
AcDbSpline
 70
     0
 71
     3
 72
     8
 73
     4
 74
     0
 42
0.000000001
 43
0.0000001
 40
0.0
 40
0.0
 40
0.0
 40
0.0
 40
1.0
 40
1.0
 40
1.0
 40
1.0
 10
335.816
 20
367.372
 30
0.0
 10
335.645
 20
367.22
 30
0.0
 10
335.548
 20
367.005
 30
0.0
 10
335.548
 20
366.776
 30
0.0
  0
SPLINE
  5
431
330
1F
100
AcDbEntity
  8
0
 62
     1
100
AcDbSpline
 70
     0
 71
     3
 72
     8
 73
     4
 74
     0
 42
0.000000001
 43
0.0000001
 40
0.0
 40
0.0
 40
0.0
 40
0.0
 40
1.0
 40
1.0
 40
1.0
 40
1.0
 10
349.614
 20
352.712
 30
0.0
 10
349.84
 20
352.712
 30
0.0
 10
350.056
 20
352.81
 30
0.0
 10
350.206
 20
352.979
 30
0.0
  0
SPLINE
  5
432
330
1F
100
AcDbEntity
  8
0
 62
     1
100
AcDbSpline
 70
     0
 71
     3
 72
     8
 73
     4
 74
     0
 42
0.000000001
 43
0.0000001
 40
0.0
 40
0.0
 40
0.0
 40
0.0
 40
1.0
 40
1.0
 40
1.0
 40
1.0
 10
350.206
 20
352.979
 30
0.0
 10
350.358
 20
353.148
 30
0.0
 10
350.428
 20
353.374
 30
0.0
 10
350.402
 20
353.6
 30
0.0
  0
SPLINE
  5
433
330
1F
100
AcDbEntity
  8
0
 62
     1
100
AcDbSpline
 70
     0
 71
     3
 72
     8
 73
     4
 74
     0
 42
0.000000001
 43
0.0000001
 40
0.0
 40
0.0
 40
0.0
 40
0.0
 40
1.0
 40
1.0
 40
1.0
 40
1.0
 10
348.444
 20
353.409
 30
0.0
 10
348.493
 20
353.011
 30
0.0
 10
348.831
 20
352.713
 30
0.0
 10
349.232
 20
352.713
 30
0.0
  0
SPLINE
  5
434
330
1F
100
AcDbEntity
  8
0
 62
     1
100
AcDbSpline
 70
     0
 71
     3
 72
     8
 73
     4
 74
     0
 42
0.000000001
 43
0.0000001
 40
0.0
 40
0.0
 40
0.0
 40
0.0
 40
1.0
 40
1.0
 40
1.0
 40
1.0
 10
333.515
 20
362.775
 30
0.0
 10
333.515
 20
363.008
 30
0.0
 10
333.413
 20
363.231
 30
0.0
 10
333.236
 20
363.382
 30
0.0
  0
SPLINE
  5
435
330
1F
100
AcDbEntity
  8
0
 62
     1
100
AcDbSpline
 70
     0
 71
     3
 72
     8
 73
     4
 74
     0
 42
0.000000001
 43
0.0000001
 40
0.0
 40
0.0
 40
0.0
 40
0.0
 40
1.0
 40
1.0
 40
1.0
 40
1.0
 10
333.236
 20
363.382
 30
0.0
 10
333.059
 20
363.53
 30
0.0
 10
332.824
 20
363.597
 30
0.0
 10
332.595
 20
363.562
 30
0.0
  0
SPLINE
  5
436
330
1F
100
AcDbEntity
  8
0
 62
     1
100
AcDbSpline
 70
     0
 71
     3
 72
     8
 73
     4
 74
     0
 42
0.000000001
 43
0.0000001
 40
0.0
 40
0.0
 40
0.0
 40
0.0
 40
1.0
 40
1.0
 40
1.0
 40
1.0
 10
332.854
 20
361.551
 30
0.0
 10
333.236
 20
361.615
 30
0.0
 10
333.515
 20
361.943
 30
0.0
 10
333.515
 20
362.331
 30
0.0
  0
SPLINE
  5
437
330
1F
100
AcDbEntity
  8
0
 62
     1
100
AcDbSpline
 70
     0
 71
     3
 72
     8
 73
     4
 74
     0
 42
0.000000001
 43
0.0000001
 40
0.0
 40
0.0
 40
0.0
 40
0.0
 40
1.0
 40
1.0
 40
1.0
 40
1.0
 10
323.896
 20
352.712
 30
0.0
 10
324.283
 20
352.712
 30
0.0
 10
324.613
 20
352.993
 30
0.0
 10
324.678
 20
353.374
 30
0.0
  0
SPLINE
  5
438
330
1F
100
AcDbEntity
  8
0
 62
     1
100
AcDbSpline
 70
     0
 71
     3
 72
     8
 73
     4
 74
     0
 42
0.000000001
 43
0.0000001
 40
0.0
 40
0.0
 40
0.0
 40
0.0
 40
1.0
 40
1.0
 40
1.0
 40
1.0
 10
322.667
 20
353.635
 30
0.0
 10
322.63
 20
353.402
 30
0.0
 10
322.695
 20
353.169
 30
0.0
 10
322.847
 20
352.993
 30
0.0
  0
SPLINE
  5
439
330
1F
100
AcDbEntity
  8
0
 62
     1
100
AcDbSpline
 70
     0
 71
     3
 72
     8
 73
     4
 74
     0
 42
0.000000001
 43
0.0000001
 40
0.0
 40
0.0
 40
0.0
 40
0.0
 40
1.0
 40
1.0
 40
1.0
 40
1.0
 10
322.847
 20
352.993
 30
0.0
 10
322.997
 20
352.817
 30
0.0
 10
323.219
 20
352.713
 30
0.0
 10
323.45
 20
352.712
 30
0.0
  0
SPLINE
  5
43A
330
1F
100
AcDbEntity
  8
0
 62
     1
100
AcDbSpline
 70
     0
 71
     3
 72
     8
 73
     4
 74
     0
 42
0.000000001
 43
0.0000001
 40
0.0
 40
0.0
 40
0.0
 40
0.0
 40
1.0
 40
1.0
 40
1.0
 40
1.0
 10
345.168
 20
350.681
 30
0.0
 10
344.781
 20
350.681
 30
0.0
 10
344.45
 20
350.401
 30
0.0
 10
344.386
 20
350.019
 30
0.0
  0
SPLINE
  5
43B
330
1F
100
AcDbEntity
  8
0
 62
     1
100
AcDbSpline
 70
     0
 71
     3
 72
     8
 73
     4
 74
     0
 42
0.000000001
 43
0.0000001
 40
0.0
 40
0.0
 40
0.0
 40
0.0
 40
1.0
 40
1.0
 40
1.0
 40
1.0
 10
346.396
 20
349.758
 30
0.0
 10
346.433
 20
349.989
 30
0.0
 10
346.369
 20
350.223
 30
0.0
 10
346.217
 20
350.401
 30
0.0
  0
SPLINE
  5
43C
330
1F
100
AcDbEntity
  8
0
 62
     1
100
AcDbSpline
 70
     0
 71
     3
 72
     8
 73
     4
 74
     0
 42
0.000000001
 43
0.0000001
 40
0.0
 40
0.0
 40
0.0
 40
0.0
 40
1.0
 40
1.0
 40
1.0
 40
1.0
 10
346.217
 20
350.401
 30
0.0
 10
346.067
 20
350.579
 30
0.0
 10
345.846
 20
350.681
 30
0.0
 10
345.613
 20
350.681
 30
0.0
  0
SPLINE
  5
43D
330
1F
100
AcDbEntity
  8
0
 62
     1
100
AcDbSpline
 70
     0
 71
     3
 72
     8
 73
     4
 74
     0
 42
0.000000001
 43
0.0000001
 40
0.0
 40
0.0
 40
0.0
 40
0.0
 40
1.0
 40
1.0
 40
1.0
 40
1.0
 10
335.548
 20
340.615
 30
0.0
 10
335.548
 20
340.382
 30
0.0
 10
335.65
 20
340.162
 30
0.0
 10
335.828
 20
340.012
 30
0.0
  0
SPLINE
  5
43E
330
1F
100
AcDbEntity
  8
0
 62
     1
100
AcDbSpline
 70
     0
 71
     3
 72
     8
 73
     4
 74
     0
 42
0.000000001
 43
0.0000001
 40
0.0
 40
0.0
 40
0.0
 40
0.0
 40
1.0
 40
1.0
 40
1.0
 40
1.0
 10
335.828
 20
340.012
 30
0.0
 10
336.004
 20
339.86
 30
0.0
 10
336.24
 20
339.795
 30
0.0
 10
336.469
 20
339.833
 30
0.0
  0
SPLINE
  5
43F
330
1F
100
AcDbEntity
  8
0
 62
     1
100
AcDbSpline
 70
     0
 71
     3
 72
     8
 73
     4
 74
     0
 42
0.000000001
 43
0.0000001
 40
0.0
 40
0.0
 40
0.0
 40
0.0
 40
1.0
 40
1.0
 40
1.0
 40
1.0
 10
336.21
 20
341.843
 30
0.0
 10
335.828
 20
341.778
 30
0.0
 10
335.548
 20
341.448
 30
0.0
 10
335.548
 20
341.06
 30
0.0
  0
SPLINE
  5
440
330
1F
100
AcDbEntity
  8
0
 62
     1
100
AcDbSpline
 70
     0
 71
     3
 72
     8
 73
     4
 74
     0
 42
0.000000001
 43
0.0000001
 40
0.0
 40
0.0
 40
0.0
 40
0.0
 40
1.0
 40
1.0
 40
1.0
 40
1.0
 10
333.515
 20
358.648
 30
0.0
 10
333.515
 20
358.895
 30
0.0
 10
333.403
 20
359.128
 30
0.0
 10
333.208
 20
359.276
 30
0.0
  0
SPLINE
  5
441
330
1F
100
AcDbEntity
  8
0
 62
     1
100
AcDbSpline
 70
     0
 71
     3
 72
     8
 73
     4
 74
     0
 42
0.000000001
 43
0.0000001
 40
0.0
 40
0.0
 40
0.0
 40
0.0
 40
1.0
 40
1.0
 40
1.0
 40
1.0
 10
333.208
 20
359.276
 30
0.0
 10
333.014
 20
359.428
 30
0.0
 10
332.762
 20
359.481
 30
0.0
 10
332.523
 20
359.417
 30
0.0
  0
SPLINE
  5
442
330
1F
100
AcDbEntity
  8
0
 62
     1
100
AcDbSpline
 70
     0
 71
     3
 72
     8
 73
     4
 74
     0
 42
0.000000001
 43
0.0000001
 40
0.0
 40
0.0
 40
0.0
 40
0.0
 40
1.0
 40
1.0
 40
1.0
 40
1.0
 10
332.933
 20
357.501
 30
0.0
 10
333.277
 20
357.597
 30
0.0
 10
333.515
 20
357.911
 30
0.0
 10
333.515
 20
358.267
 30
0.0
  0
SPLINE
  5
443
330
1F
100
AcDbEntity
  8
0
 62
     1
100
AcDbSpline
 70
     0
 71
     3
 72
     8
 73
     4
 74
     0
 42
0.000000001
 43
0.0000001
 40
0.0
 40
0.0
 40
0.0
 40
0.0
 40
1.0
 40
1.0
 40
1.0
 40
1.0
 10
327.959
 20
352.712
 30
0.0
 10
328.318
 20
352.712
 30
0.0
 10
328.631
 20
352.951
 30
0.0
 10
328.725
 20
353.296
 30
0.0
  0
SPLINE
  5
444
330
1F
100
AcDbEntity
  8
0
 62
     1
100
AcDbSpline
 70
     0
 71
     3
 72
     8
 73
     4
 74
     0
 42
0.000000001
 43
0.0000001
 40
0.0
 40
0.0
 40
0.0
 40
0.0
 40
1.0
 40
1.0
 40
1.0
 40
1.0
 10
326.81
 20
353.706
 30
0.0
 10
326.749
 20
353.466
 30
0.0
 10
326.8
 20
353.215
 30
0.0
 10
326.951
 20
353.021
 30
0.0
  0
SPLINE
  5
445
330
1F
100
AcDbEntity
  8
0
 62
     1
100
AcDbSpline
 70
     0
 71
     3
 72
     8
 73
     4
 74
     0
 42
0.000000001
 43
0.0000001
 40
0.0
 40
0.0
 40
0.0
 40
0.0
 40
1.0
 40
1.0
 40
1.0
 40
1.0
 10
326.951
 20
353.021
 30
0.0
 10
327.101
 20
352.827
 30
0.0
 10
327.334
 20
352.713
 30
0.0
 10
327.579
 20
352.712
 30
0.0
  0
SPLINE
  5
446
330
1F
100
AcDbEntity
  8
0
 62
     1
100
AcDbSpline
 70
     0
 71
     3
 72
     8
 73
     4
 74
     0
 42
0.000000001
 43
0.0000001
 40
0.0
 40
0.0
 40
0.0
 40
0.0
 40
1.0
 40
1.0
 40
1.0
 40
1.0
 10
341.104
 20
350.681
 30
0.0
 10
340.747
 20
350.681
 30
0.0
 10
340.433
 20
350.442
 30
0.0
 10
340.338
 20
350.096
 30
0.0
  0
SPLINE
  5
447
330
1F
100
AcDbEntity
  8
0
 62
     1
100
AcDbSpline
 70
     0
 71
     3
 72
     8
 73
     4
 74
     0
 42
0.000000001
 43
0.0000001
 40
0.0
 40
0.0
 40
0.0
 40
0.0
 40
1.0
 40
1.0
 40
1.0
 40
1.0
 10
342.254
 20
349.688
 30
0.0
 10
342.316
 20
349.925
 30
0.0
 10
342.263
 20
350.179
 30
0.0
 10
342.113
 20
350.373
 30
0.0
  0
SPLINE
  5
448
330
1F
100
AcDbEntity
  8
0
 62
     1
100
AcDbSpline
 70
     0
 71
     3
 72
     8
 73
     4
 74
     0
 42
0.000000001
 43
0.0000001
 40
0.0
 40
0.0
 40
0.0
 40
0.0
 40
1.0
 40
1.0
 40
1.0
 40
1.0
 10
342.113
 20
350.373
 30
0.0
 10
341.963
 20
350.566
 30
0.0
 10
341.732
 20
350.681
 30
0.0
 10
341.485
 20
350.681
 30
0.0
  0
SPLINE
  5
449
330
1F
100
AcDbEntity
  8
0
 62
     1
100
AcDbSpline
 70
     0
 71
     3
 72
     8
 73
     4
 74
     0
 42
0.000000001
 43
0.0000001
 40
0.0
 40
0.0
 40
0.0
 40
0.0
 40
1.0
 40
1.0
 40
1.0
 40
1.0
 10
335.548
 20
344.744
 30
0.0
 10
335.548
 20
344.497
 30
0.0
 10
335.661
 20
344.266
 30
0.0
 10
335.855
 20
344.115
 30
0.0
  0
SPLINE
  5
44A
330
1F
100
AcDbEntity
  8
0
 62
     1
100
AcDbSpline
 70
     0
 71
     3
 72
     8
 73
     4
 74
     0
 42
0.000000001
 43
0.0000001
 40
0.0
 40
0.0
 40
0.0
 40
0.0
 40
1.0
 40
1.0
 40
1.0
 40
1.0
 10
335.855
 20
344.115
 30
0.0
 10
336.05
 20
343.965
 30
0.0
 10
336.302
 20
343.913
 30
0.0
 10
336.54
 20
343.975
 30
0.0
  0
SPLINE
  5
44B
330
1F
100
AcDbEntity
  8
0
 62
     1
100
AcDbSpline
 70
     0
 71
     3
 72
     8
 73
     4
 74
     0
 42
0.000000001
 43
0.0000001
 40
0.0
 40
0.0
 40
0.0
 40
0.0
 40
1.0
 40
1.0
 40
1.0
 40
1.0
 10
336.131
 20
345.889
 30
0.0
 10
335.787
 20
345.795
 30
0.0
 10
335.548
 20
345.481
 30
0.0
 10
335.548
 20
345.124
 30
0.0
  0
SPLINE
  5
44C
330
1F
100
AcDbEntity
  8
0
 62
     1
100
AcDbSpline
 70
     0
 71
     3
 72
     8
 73
     4
 74
     0
 42
0.000000001
 43
0.0000001
 40
0.0
 40
0.0
 40
0.0
 40
0.0
 40
1.0
 40
1.0
 40
1.0
 40
1.0
 10
327.579
 20
350.681
 30
0.0
 10
327.334
 20
350.681
 30
0.0
 10
327.102
 20
350.567
 30
0.0
 10
326.951
 20
350.373
 30
0.0
  0
SPLINE
  5
44D
330
1F
100
AcDbEntity
  8
0
 62
     1
100
AcDbSpline
 70
     0
 71
     3
 72
     8
 73
     4
 74
     0
 42
0.000000001
 43
0.0000001
 40
0.0
 40
0.0
 40
0.0
 40
0.0
 40
1.0
 40
1.0
 40
1.0
 40
1.0
 10
326.951
 20
350.373
 30
0.0
 10
326.8
 20
350.179
 30
0.0
 10
326.749
 20
349.927
 30
0.0
 10
326.81
 20
349.688
 30
0.0
  0
SPLINE
  5
44E
330
1F
100
AcDbEntity
  8
0
 62
     1
100
AcDbSpline
 70
     0
 71
     3
 72
     8
 73
     4
 74
     0
 42
0.000000001
 43
0.0000001
 40
0.0
 40
0.0
 40
0.0
 40
0.0
 40
1.0
 40
1.0
 40
1.0
 40
1.0
 10
328.725
 20
350.096
 30
0.0
 10
328.631
 20
350.442
 30
0.0
 10
328.318
 20
350.681
 30
0.0
 10
327.959
 20
350.681
 30
0.0
  0
SPLINE
  5
44F
330
1F
100
AcDbEntity
  8
0
 62
     1
100
AcDbSpline
 70
     0
 71
     3
 72
     8
 73
     4
 74
     0
 42
0.000000001
 43
0.0000001
 40
0.0
 40
0.0
 40
0.0
 40
0.0
 40
1.0
 40
1.0
 40
1.0
 40
1.0
 10
333.515
 20
345.124
 30
0.0
 10
333.515
 20
345.481
 30
0.0
 10
333.277
 20
345.795
 30
0.0
 10
332.933
 20
345.889
 30
0.0
  0
SPLINE
  5
450
330
1F
100
AcDbEntity
  8
0
 62
     1
100
AcDbSpline
 70
     0
 71
     3
 72
     8
 73
     4
 74
     0
 42
0.000000001
 43
0.0000001
 40
0.0
 40
0.0
 40
0.0
 40
0.0
 40
1.0
 40
1.0
 40
1.0
 40
1.0
 10
332.523
 20
343.975
 30
0.0
 10
332.762
 20
343.913
 30
0.0
 10
333.014
 20
343.965
 30
0.0
 10
333.208
 20
344.115
 30
0.0
  0
SPLINE
  5
451
330
1F
100
AcDbEntity
  8
0
 62
     1
100
AcDbSpline
 70
     0
 71
     3
 72
     8
 73
     4
 74
     0
 42
0.000000001
 43
0.0000001
 40
0.0
 40
0.0
 40
0.0
 40
0.0
 40
1.0
 40
1.0
 40
1.0
 40
1.0
 10
333.208
 20
344.115
 30
0.0
 10
333.403
 20
344.266
 30
0.0
 10
333.515
 20
344.497
 30
0.0
 10
333.515
 20
344.743
 30
0.0
  0
SPLINE
  5
452
330
1F
100
AcDbEntity
  8
0
 62
     1
100
AcDbSpline
 70
     0
 71
     3
 72
     8
 73
     4
 74
     0
 42
0.000000001
 43
0.0000001
 40
0.0
 40
0.0
 40
0.0
 40
0.0
 40
1.0
 40
1.0
 40
1.0
 40
1.0
 10
335.548
 20
358.271
 30
0.0
 10
335.548
 20
357.911
 30
0.0
 10
335.787
 20
357.597
 30
0.0
 10
336.131
 20
357.501
 30
0.0
  0
SPLINE
  5
453
330
1F
100
AcDbEntity
  8
0
 62
     1
100
AcDbSpline
 70
     0
 71
     3
 72
     8
 73
     4
 74
     0
 42
0.000000001
 43
0.0000001
 40
0.0
 40
0.0
 40
0.0
 40
0.0
 40
1.0
 40
1.0
 40
1.0
 40
1.0
 10
336.54
 20
359.417
 30
0.0
 10
336.302
 20
359.481
 30
0.0
 10
336.05
 20
359.428
 30
0.0
 10
335.855
 20
359.276
 30
0.0
  0
SPLINE
  5
454
330
1F
100
AcDbEntity
  8
0
 62
     1
100
AcDbSpline
 70
     0
 71
     3
 72
     8
 73
     4
 74
     0
 42
0.000000001
 43
0.0000001
 40
0.0
 40
0.0
 40
0.0
 40
0.0
 40
1.0
 40
1.0
 40
1.0
 40
1.0
 10
335.855
 20
359.276
 30
0.0
 10
335.661
 20
359.128
 30
0.0
 10
335.548
 20
358.895
 30
0.0
 10
335.548
 20
358.648
 30
0.0
  0
SPLINE
  5
455
330
1F
100
AcDbEntity
  8
0
 62
     1
100
AcDbSpline
 70
     0
 71
     3
 72
     8
 73
     4
 74
     0
 42
0.000000001
 43
0.0000001
 40
0.0
 40
0.0
 40
0.0
 40
0.0
 40
1.0
 40
1.0
 40
1.0
 40
1.0
 10
341.485
 20
352.712
 30
0.0
 10
341.73
 20
352.712
 30
0.0
 10
341.963
 20
352.827
 30
0.0
 10
342.113
 20
353.021
 30
0.0
  0
SPLINE
  5
456
330
1F
100
AcDbEntity
  8
0
 62
     1
100
AcDbSpline
 70
     0
 71
     3
 72
     8
 73
     4
 74
     0
 42
0.000000001
 43
0.0000001
 40
0.0
 40
0.0
 40
0.0
 40
0.0
 40
1.0
 40
1.0
 40
1.0
 40
1.0
 10
342.113
 20
353.021
 30
0.0
 10
342.263
 20
353.215
 30
0.0
 10
342.316
 20
353.466
 30
0.0
 10
342.254
 20
353.706
 30
0.0
  0
SPLINE
  5
457
330
1F
100
AcDbEntity
  8
0
 62
     1
100
AcDbSpline
 70
     0
 71
     3
 72
     8
 73
     4
 74
     0
 42
0.000000001
 43
0.0000001
 40
0.0
 40
0.0
 40
0.0
 40
0.0
 40
1.0
 40
1.0
 40
1.0
 40
1.0
 10
340.338
 20
353.296
 30
0.0
 10
340.433
 20
352.951
 30
0.0
 10
340.746
 20
352.713
 30
0.0
 10
341.104
 20
352.712
 30
0.0
  0
SPLINE
  5
458
330
1F
100
AcDbEntity
  8
0
 62
     1
100
AcDbSpline
 70
     0
 71
     3
 72
     8
 73
     4
 74
     0
 42
0.000000001
 43
0.0000001
 40
0.0
 40
0.0
 40
0.0
 40
0.0
 40
1.0
 40
1.0
 40
1.0
 40
1.0
 10
323.452
 20
350.681
 30
0.0
 10
323.219
 20
350.681
 30
0.0
 10
322.997
 20
350.579
 30
0.0
 10
322.847
 20
350.401
 30
0.0
  0
SPLINE
  5
459
330
1F
100
AcDbEntity
  8
0
 62
     1
100
AcDbSpline
 70
     0
 71
     3
 72
     8
 73
     4
 74
     0
 42
0.000000001
 43
0.0000001
 40
0.0
 40
0.0
 40
0.0
 40
0.0
 40
1.0
 40
1.0
 40
1.0
 40
1.0
 10
322.847
 20
350.401
 30
0.0
 10
322.695
 20
350.223
 30
0.0
 10
322.63
 20
349.989
 30
0.0
 10
322.667
 20
349.758
 30
0.0
  0
SPLINE
  5
45A
330
1F
100
AcDbEntity
  8
0
 62
     1
100
AcDbSpline
 70
     0
 71
     3
 72
     8
 73
     4
 74
     0
 42
0.000000001
 43
0.0000001
 40
0.0
 40
0.0
 40
0.0
 40
0.0
 40
1.0
 40
1.0
 40
1.0
 40
1.0
 10
324.678
 20
350.019
 30
0.0
 10
324.613
 20
350.401
 30
0.0
 10
324.283
 20
350.681
 30
0.0
 10
323.896
 20
350.681
 30
0.0
  0
SPLINE
  5
45B
330
1F
100
AcDbEntity
  8
0
 62
     1
100
AcDbSpline
 70
     0
 71
     3
 72
     8
 73
     4
 74
     0
 42
0.000000001
 43
0.0000001
 40
0.0
 40
0.0
 40
0.0
 40
0.0
 40
1.0
 40
1.0
 40
1.0
 40
1.0
 10
333.515
 20
341.06
 30
0.0
 10
333.515
 20
341.448
 30
0.0
 10
333.236
 20
341.778
 30
0.0
 10
332.854
 20
341.843
 30
0.0
  0
SPLINE
  5
45C
330
1F
100
AcDbEntity
  8
0
 62
     1
100
AcDbSpline
 70
     0
 71
     3
 72
     8
 73
     4
 74
     0
 42
0.000000001
 43
0.0000001
 40
0.0
 40
0.0
 40
0.0
 40
0.0
 40
1.0
 40
1.0
 40
1.0
 40
1.0
 10
332.595
 20
339.833
 30
0.0
 10
332.824
 20
339.795
 30
0.0
 10
333.059
 20
339.86
 30
0.0
 10
333.236
 20
340.01
 30
0.0
  0
SPLINE
  5
45D
330
1F
100
AcDbEntity
  8
0
 62
     1
100
AcDbSpline
 70
     0
 71
     3
 72
     8
 73
     4
 74
     0
 42
0.000000001
 43
0.0000001
 40
0.0
 40
0.0
 40
0.0
 40
0.0
 40
1.0
 40
1.0
 40
1.0
 40
1.0
 10
333.236
 20
340.01
 30
0.0
 10
333.413
 20
340.162
 30
0.0
 10
333.515
 20
340.382
 30
0.0
 10
333.515
 20
340.615
 30
0.0
  0
SPLINE
  5
45E
330
1F
100
AcDbEntity
  8
0
 62
     1
100
AcDbSpline
 70
     0
 71
     3
 72
     8
 73
     4
 74
     0
 42
0.000000001
 43
0.0000001
 40
0.0
 40
0.0
 40
0.0
 40
0.0
 40
1.0
 40
1.0
 40
1.0
 40
1.0
 10
335.548
 20
362.335
 30
0.0
 10
335.548
 20
361.946
 30
0.0
 10
335.828
 20
361.615
 30
0.0
 10
336.21
 20
361.551
 30
0.0
  0
SPLINE
  5
45F
330
1F
100
AcDbEntity
  8
0
 62
     1
100
AcDbSpline
 70
     0
 71
     3
 72
     8
 73
     4
 74
     0
 42
0.000000001
 43
0.0000001
 40
0.0
 40
0.0
 40
0.0
 40
0.0
 40
1.0
 40
1.0
 40
1.0
 40
1.0
 10
336.469
 20
363.562
 30
0.0
 10
336.24
 20
363.597
 30
0.0
 10
336.004
 20
363.53
 30
0.0
 10
335.828
 20
363.382
 30
0.0
  0
SPLINE
  5
460
330
1F
100
AcDbEntity
  8
0
 62
     1
100
AcDbSpline
 70
     0
 71
     3
 72
     8
 73
     4
 74
     0
 42
0.000000001
 43
0.0000001
 40
0.0
 40
0.0
 40
0.0
 40
0.0
 40
1.0
 40
1.0
 40
1.0
 40
1.0
 10
335.828
 20
363.382
 30
0.0
 10
335.65
 20
363.231
 30
0.0
 10
335.548
 20
363.008
 30
0.0
 10
335.548
 20
362.775
 30
0.0
  0
SPLINE
  5
461
330
1F
100
AcDbEntity
  8
0
 62
     1
100
AcDbSpline
 70
     0
 71
     3
 72
     8
 73
     4
 74
     0
 42
0.000000001
 43
0.0000001
 40
0.0
 40
0.0
 40
0.0
 40
0.0
 40
1.0
 40
1.0
 40
1.0
 40
1.0
 10
345.612
 20
352.712
 30
0.0
 10
345.845
 20
352.712
 30
0.0
 10
346.067
 20
352.817
 30
0.0
 10
346.217
 20
352.993
 30
0.0
  0
SPLINE
  5
462
330
1F
100
AcDbEntity
  8
0
 62
     1
100
AcDbSpline
 70
     0
 71
     3
 72
     8
 73
     4
 74
     0
 42
0.000000001
 43
0.0000001
 40
0.0
 40
0.0
 40
0.0
 40
0.0
 40
1.0
 40
1.0
 40
1.0
 40
1.0
 10
346.217
 20
352.993
 30
0.0
 10
346.369
 20
353.169
 30
0.0
 10
346.433
 20
353.402
 30
0.0
 10
346.396
 20
353.635
 30
0.0
  0
SPLINE
  5
463
330
1F
100
AcDbEntity
  8
0
 62
     1
100
AcDbSpline
 70
     0
 71
     3
 72
     8
 73
     4
 74
     0
 42
0.000000001
 43
0.0000001
 40
0.0
 40
0.0
 40
0.0
 40
0.0
 40
1.0
 40
1.0
 40
1.0
 40
1.0
 10
344.386
 20
353.374
 30
0.0
 10
344.45
 20
352.993
 30
0.0
 10
344.781
 20
352.713
 30
0.0
 10
345.168
 20
352.712
 30
0.0
  0
SPLINE
  5
464
330
1F
100
AcDbEntity
  8
0
 62
     1
100
AcDbSpline
 70
     0
 71
     3
 72
     8
 73
     4
 74
     0
 42
0.000000001
 43
0.0000001
 40
0.0
 40
0.0
 40
0.0
 40
0.0
 40
1.0
 40
1.0
 40
1.0
 40
1.0
 10
349.232
 20
350.681
 30
0.0
 10
348.831
 20
350.681
 30
0.0
 10
348.493
 20
350.381
 30
0.0
 10
348.444
 20
349.983
 30
0.0
  0
SPLINE
  5
465
330
1F
100
AcDbEntity
  8
0
 62
     1
100
AcDbSpline
 70
     0
 71
     3
 72
     8
 73
     4
 74
     0
 42
0.000000001
 43
0.0000001
 40
0.0
 40
0.0
 40
0.0
 40
0.0
 40
1.0
 40
1.0
 40
1.0
 40
1.0
 10
350.401
 20
349.793
 30
0.0
 10
350.428
 20
350.018
 30
0.0
 10
350.358
 20
350.243
 30
0.0
 10
350.206
 20
350.413
 30
0.0
  0
SPLINE
  5
466
330
1F
100
AcDbEntity
  8
0
 62
     1
100
AcDbSpline
 70
     0
 71
     3
 72
     8
 73
     4
 74
     0
 42
0.000000001
 43
0.0000001
 40
0.0
 40
0.0
 40
0.0
 40
0.0
 40
1.0
 40
1.0
 40
1.0
 40
1.0
 10
350.206
 20
350.413
 30
0.0
 10
350.056
 20
350.582
 30
0.0
 10
349.84
 20
350.681
 30
0.0
 10
349.614
 20
350.681
 30
0.0
  0
SPLINE
  5
467
330
1F
100
AcDbEntity
  8
0
 62
     1
100
AcDbSpline
 70
     0
 71
     3
 72
     8
 73
     4
 74
     0
 42
0.000000001
 43
0.0000001
 40
0.0
 40
0.0
 40
0.0
 40
0.0
 40
1.0
 40
1.0
 40
1.0
 40
1.0
 10
335.548
 20
336.615
 30
0.0
 10
335.548
 20
336.389
 30
0.0
 10
335.645
 20
336.173
 30
0.0
 10
335.814
 20
336.022
 30
0.0
  0
SPLINE
  5
468
330
1F
100
AcDbEntity
  8
0
 62
     1
100
AcDbSpline
 70
     0
 71
     3
 72
     8
 73
     4
 74
     0
 42
0.000000001
 43
0.0000001
 40
0.0
 40
0.0
 40
0.0
 40
0.0
 40
1.0
 40
1.0
 40
1.0
 40
1.0
 10
335.814
 20
336.022
 30
0.0
 10
335.985
 20
335.871
 30
0.0
 10
336.211
 20
335.8
 30
0.0
 10
336.436
 20
335.826
 30
0.0
  0
SPLINE
  5
469
330
1F
100
AcDbEntity
  8
0
 62
     1
100
AcDbSpline
 70
     0
 71
     3
 72
     8
 73
     4
 74
     0
 42
0.000000001
 43
0.0000001
 40
0.0
 40
0.0
 40
0.0
 40
0.0
 40
1.0
 40
1.0
 40
1.0
 40
1.0
 10
336.246
 20
337.783
 30
0.0
 10
335.847
 20
337.735
 30
0.0
 10
335.548
 20
337.397
 30
0.0
 10
335.548
 20
336.997
 30
0.0
  0
SPLINE
  5
46A
330
1F
100
AcDbEntity
  8
0
 62
     1
100
AcDbSpline
 70
     0
 71
     3
 72
     8
 73
     4
 74
     0
 42
0.000000001
 43
0.0000001
 40
0.0
 40
0.0
 40
0.0
 40
0.0
 40
1.0
 40
1.0
 40
1.0
 40
1.0
 10
319.451
 20
350.681
 30
0.0
 10
319.224
 20
350.681
 30
0.0
 10
319.007
 20
350.584
 30
0.0
 10
318.857
 20
350.413
 30
0.0
  0
SPLINE
  5
46B
330
1F
100
AcDbEntity
  8
0
 62
     1
100
AcDbSpline
 70
     0
 71
     3
 72
     8
 73
     4
 74
     0
 42
0.000000001
 43
0.0000001
 40
0.0
 40
0.0
 40
0.0
 40
0.0
 40
1.0
 40
1.0
 40
1.0
 40
1.0
 10
318.857
 20
350.413
 30
0.0
 10
318.707
 20
350.243
 30
0.0
 10
318.636
 20
350.018
 30
0.0
 10
318.663
 20
349.793
 30
0.0
  0
SPLINE
  5
46C
330
1F
100
AcDbEntity
  8
0
 62
     1
100
AcDbSpline
 70
     0
 71
     3
 72
     8
 73
     4
 74
     0
 42
0.000000001
 43
0.0000001
 40
0.0
 40
0.0
 40
0.0
 40
0.0
 40
1.0
 40
1.0
 40
1.0
 40
1.0
 10
320.62
 20
349.983
 30
0.0
 10
320.57
 20
350.381
 30
0.0
 10
320.233
 20
350.681
 30
0.0
 10
319.832
 20
350.681
 30
0.0
  0
SPLINE
  5
46D
330
1F
100
AcDbEntity
  8
0
 62
     1
100
AcDbSpline
 70
     0
 71
     3
 72
     8
 73
     4
 74
     0
 42
0.000000001
 43
0.0000001
 40
0.0
 40
0.0
 40
0.0
 40
0.0
 40
1.0
 40
1.0
 40
1.0
 40
1.0
 10
333.515
 20
336.997
 30
0.0
 10
333.515
 20
337.397
 30
0.0
 10
333.217
 20
337.735
 30
0.0
 10
332.818
 20
337.783
 30
0.0
  0
SPLINE
  5
46E
330
1F
100
AcDbEntity
  8
0
 62
     1
100
AcDbSpline
 70
     0
 71
     3
 72
     8
 73
     4
 74
     0
 42
0.000000001
 43
0.0000001
 40
0.0
 40
0.0
 40
0.0
 40
0.0
 40
1.0
 40
1.0
 40
1.0
 40
1.0
 10
332.628
 20
335.826
 30
0.0
 10
332.854
 20
335.8
 30
0.0
 10
333.08
 20
335.871
 30
0.0
 10
333.25
 20
336.021
 30
0.0
  0
SPLINE
  5
46F
330
1F
100
AcDbEntity
  8
0
 62
     1
100
AcDbSpline
 70
     0
 71
     3
 72
     8
 73
     4
 74
     0
 42
0.000000001
 43
0.0000001
 40
0.0
 40
0.0
 40
0.0
 40
0.0
 40
1.0
 40
1.0
 40
1.0
 40
1.0
 10
333.25
 20
336.021
 30
0.0
 10
333.419
 20
336.173
 30
0.0
 10
333.515
 20
336.387
 30
0.0
 10
333.515
 20
336.615
 30
0.0
  0
SPLINE
  5
470
330
1F
100
AcDbEntity
  8
0
 62
     1
100
AcDbSpline
 70
     0
 71
     3
 72
     8
 73
     4
 74
     0
 42
0.000000001
 43
0.0000001
 40
0.0
 40
0.0
 40
0.0
 40
0.0
 40
1.0
 40
1.0
 40
1.0
 40
1.0
 10
344.328
 20
364.331
 30
0.0
 10
344.239
 20
363.569
 30
0.0
 10
344.506
 20
362.811
 30
0.0
 10
345.05
 20
362.271
 30
0.0
  0
SPLINE
  5
471
330
1F
100
AcDbEntity
  8
0
 62
     1
100
AcDbSpline
 70
     0
 71
     3
 72
     8
 73
     4
 74
     0
 42
0.000000001
 43
0.0000001
 40
0.0
 40
0.0
 40
0.0
 40
0.0
 40
1.0
 40
1.0
 40
1.0
 40
1.0
 10
345.05
 20
362.271
 30
0.0
 10
345.593
 20
361.731
 30
0.0
 10
346.353
 20
361.467
 30
0.0
 10
347.115
 20
361.555
 30
0.0
  0
SPLINE
  5
472
330
1F
100
AcDbEntity
  8
0
 62
     1
100
AcDbSpline
 70
     0
 71
     3
 72
     8
 73
     4
 74
     0
 42
0.000000001
 43
0.0000001
 40
0.0
 40
0.0
 40
0.0
 40
0.0
 40
1.0
 40
1.0
 40
1.0
 40
1.0
 10
347.115
 20
341.836
 30
0.0
 10
346.353
 20
341.927
 30
0.0
 10
345.593
 20
341.664
 30
0.0
 10
345.05
 20
341.122
 30
0.0
  0
SPLINE
  5
473
330
1F
100
AcDbEntity
  8
0
 62
     1
100
AcDbSpline
 70
     0
 71
     3
 72
     8
 73
     4
 74
     0
 42
0.000000001
 43
0.0000001
 40
0.0
 40
0.0
 40
0.0
 40
0.0
 40
1.0
 40
1.0
 40
1.0
 40
1.0
 10
345.05
 20
341.122
 30
0.0
 10
344.506
 20
340.582
 30
0.0
 10
344.239
 20
339.821
 30
0.0
 10
344.328
 20
339.059
 30
0.0
  0
SPLINE
  5
474
330
1F
100
AcDbEntity
  8
0
 62
     1
100
AcDbSpline
 70
     0
 71
     3
 72
     8
 73
     4
 74
     0
 42
0.000000001
 43
0.0000001
 40
0.0
 40
0.0
 40
0.0
 40
0.0
 40
1.0
 40
1.0
 40
1.0
 40
1.0
 10
309.576
 20
370.438
 30
0.0
 10
310.405
 20
370.438
 30
0.0
 10
311.077
 20
369.764
 30
0.0
 10
311.077
 20
368.939
 30
0.0
  0
SPLINE
  5
475
330
1F
100
AcDbEntity
  8
0
 62
     1
100
AcDbSpline
 70
     0
 71
     3
 72
     8
 73
     4
 74
     0
 42
0.000000001
 43
0.0000001
 40
0.0
 40
0.0
 40
0.0
 40
0.0
 40
1.0
 40
1.0
 40
1.0
 40
1.0
 10
311.077
 20
368.939
 30
0.0
 10
311.077
 20
368.106
 30
0.0
 10
310.405
 20
367.436
 30
0.0
 10
309.576
 20
367.436
 30
0.0
  0
SPLINE
  5
476
330
1F
100
AcDbEntity
  8
0
 62
     1
100
AcDbSpline
 70
     0
 71
     3
 72
     8
 73
     4
 74
     0
 42
0.000000001
 43
0.0000001
 40
0.0
 40
0.0
 40
0.0
 40
0.0
 40
1.0
 40
1.0
 40
1.0
 40
1.0
 10
309.576
 20
367.436
 30
0.0
 10
308.748
 20
367.436
 30
0.0
 10
308.077
 20
368.106
 30
0.0
 10
308.077
 20
368.939
 30
0.0
  0
SPLINE
  5
477
330
1F
100
AcDbEntity
  8
0
 62
     1
100
AcDbSpline
 70
     0
 71
     3
 72
     8
 73
     4
 74
     0
 42
0.000000001
 43
0.0000001
 40
0.0
 40
0.0
 40
0.0
 40
0.0
 40
1.0
 40
1.0
 40
1.0
 40
1.0
 10
308.077
 20
368.939
 30
0.0
 10
308.077
 20
369.764
 30
0.0
 10
308.748
 20
370.438
 30
0.0
 10
309.576
 20
370.438
 30
0.0
  0
LINE
  5
478
330
1F
100
AcDbEntity
  8
0
 62
     1
100
AcDbLine
 10
309.576
 20
370.438
 30
0.0
 11
309.576
 21
370.438
 31
0.0
  0
SPLINE
  5
479
330
1F
100
AcDbEntity
  8
0
 62
     1
100
AcDbSpline
 70
     0
 71
     3
 72
     8
 73
     4
 74
     0
 42
0.000000001
 43
0.0000001
 40
0.0
 40
0.0
 40
0.0
 40
0.0
 40
1.0
 40
1.0
 40
1.0
 40
1.0
 10
309.576
 20
336.051
 30
0.0
 10
310.405
 20
336.051
 30
0.0
 10
311.077
 20
335.38
 30
0.0
 10
311.077
 20
334.55
 30
0.0
  0
SPLINE
  5
47A
330
1F
100
AcDbEntity
  8
0
 62
     1
100
AcDbSpline
 70
     0
 71
     3
 72
     8
 73
     4
 74
     0
 42
0.000000001
 43
0.0000001
 40
0.0
 40
0.0
 40
0.0
 40
0.0
 40
1.0
 40
1.0
 40
1.0
 40
1.0
 10
311.077
 20
334.55
 30
0.0
 10
311.077
 20
333.722
 30
0.0
 10
310.405
 20
333.051
 30
0.0
 10
309.576
 20
333.051
 30
0.0
  0
SPLINE
  5
47B
330
1F
100
AcDbEntity
  8
0
 62
     1
100
AcDbSpline
 70
     0
 71
     3
 72
     8
 73
     4
 74
     0
 42
0.000000001
 43
0.0000001
 40
0.0
 40
0.0
 40
0.0
 40
0.0
 40
1.0
 40
1.0
 40
1.0
 40
1.0
 10
309.576
 20
333.051
 30
0.0
 10
308.748
 20
333.051
 30
0.0
 10
308.077
 20
333.722
 30
0.0
 10
308.077
 20
334.55
 30
0.0
  0
SPLINE
  5
47C
330
1F
100
AcDbEntity
  8
0
 62
     1
100
AcDbSpline
 70
     0
 71
     3
 72
     8
 73
     4
 74
     0
 42
0.000000001
 43
0.0000001
 40
0.0
 40
0.0
 40
0.0
 40
0.0
 40
1.0
 40
1.0
 40
1.0
 40
1.0
 10
308.077
 20
334.55
 30
0.0
 10
308.077
 20
335.38
 30
0.0
 10
308.748
 20
336.051
 30
0.0
 10
309.576
 20
336.051
 30
0.0
  0
LINE
  5
47D
330
1F
100
AcDbEntity
  8
0
 62
     1
100
AcDbLine
 10
309.576
 20
336.051
 30
0.0
 11
309.576
 21
336.051
 31
0.0
  0
SPLINE
  5
47E
330
1F
100
AcDbEntity
  8
0
 62
     1
100
AcDbSpline
 70
     0
 71
     3
 72
     8
 73
     4
 74
     0
 42
0.000000001
 43
0.0000001
 40
0.0
 40
0.0
 40
0.0
 40
0.0
 40
1.0
 40
1.0
 40
1.0
 40
1.0
 10
346.819
 20
365.545
 30
0.0
 10
347.649
 20
365.545
 30
0.0
 10
348.32
 20
364.875
 30
0.0
 10
348.32
 20
364.045
 30
0.0
  0
SPLINE
  5
47F
330
1F
100
AcDbEntity
  8
0
 62
     1
100
AcDbSpline
 70
     0
 71
     3
 72
     8
 73
     4
 74
     0
 42
0.000000001
 43
0.0000001
 40
0.0
 40
0.0
 40
0.0
 40
0.0
 40
1.0
 40
1.0
 40
1.0
 40
1.0
 10
348.32
 20
364.045
 30
0.0
 10
348.32
 20
363.22
 30
0.0
 10
347.649
 20
362.546
 30
0.0
 10
346.819
 20
362.546
 30
0.0
  0
SPLINE
  5
480
330
1F
100
AcDbEntity
  8
0
 62
     1
100
AcDbSpline
 70
     0
 71
     3
 72
     8
 73
     4
 74
     0
 42
0.000000001
 43
0.0000001
 40
0.0
 40
0.0
 40
0.0
 40
0.0
 40
1.0
 40
1.0
 40
1.0
 40
1.0
 10
346.819
 20
362.546
 30
0.0
 10
345.991
 20
362.546
 30
0.0
 10
345.32
 20
363.22
 30
0.0
 10
345.32
 20
364.045
 30
0.0
  0
SPLINE
  5
481
330
1F
100
AcDbEntity
  8
0
 62
     1
100
AcDbSpline
 70
     0
 71
     3
 72
     8
 73
     4
 74
     0
 42
0.000000001
 43
0.0000001
 40
0.0
 40
0.0
 40
0.0
 40
0.0
 40
1.0
 40
1.0
 40
1.0
 40
1.0
 10
345.32
 20
364.045
 30
0.0
 10
345.32
 20
364.875
 30
0.0
 10
345.991
 20
365.545
 30
0.0
 10
346.819
 20
365.545
 30
0.0
  0
LINE
  5
482
330
1F
100
AcDbEntity
  8
0
 62
     1
100
AcDbLine
 10
346.819
 20
365.545
 30
0.0
 11
346.819
 21
365.545
 31
0.0
  0
SPLINE
  5
483
330
1F
100
AcDbEntity
  8
0
 62
     1
100
AcDbSpline
 70
     0
 71
     3
 72
     8
 73
     4
 74
     0
 42
0.000000001
 43
0.0000001
 40
0.0
 40
0.0
 40
0.0
 40
0.0
 40
1.0
 40
1.0
 40
1.0
 40
1.0
 10
346.819
 20
340.847
 30
0.0
 10
347.649
 20
340.847
 30
0.0
 10
348.32
 20
340.174
 30
0.0
 10
348.32
 20
339.346
 30
0.0
  0
SPLINE
  5
484
330
1F
100
AcDbEntity
  8
0
 62
     1
100
AcDbSpline
 70
     0
 71
     3
 72
     8
 73
     4
 74
     0
 42
0.000000001
 43
0.0000001
 40
0.0
 40
0.0
 40
0.0
 40
0.0
 40
1.0
 40
1.0
 40
1.0
 40
1.0
 10
348.32
 20
339.346
 30
0.0
 10
348.32
 20
338.518
 30
0.0
 10
347.649
 20
337.845
 30
0.0
 10
346.819
 20
337.845
 30
0.0
  0
SPLINE
  5
485
330
1F
100
AcDbEntity
  8
0
 62
     1
100
AcDbSpline
 70
     0
 71
     3
 72
     8
 73
     4
 74
     0
 42
0.000000001
 43
0.0000001
 40
0.0
 40
0.0
 40
0.0
 40
0.0
 40
1.0
 40
1.0
 40
1.0
 40
1.0
 10
346.819
 20
337.845
 30
0.0
 10
345.991
 20
337.845
 30
0.0
 10
345.32
 20
338.518
 30
0.0
 10
345.32
 20
339.346
 30
0.0
  0
SPLINE
  5
486
330
1F
100
AcDbEntity
  8
0
 62
     1
100
AcDbSpline
 70
     0
 71
     3
 72
     8
 73
     4
 74
     0
 42
0.000000001
 43
0.0000001
 40
0.0
 40
0.0
 40
0.0
 40
0.0
 40
1.0
 40
1.0
 40
1.0
 40
1.0
 10
345.32
 20
339.346
 30
0.0
 10
345.32
 20
340.174
 30
0.0
 10
345.991
 20
340.847
 30
0.0
 10
346.819
 20
340.847
 30
0.0
  0
LINE
  5
487
330
1F
100
AcDbEntity
  8
0
 62
     1
100
AcDbLine
 10
346.819
 20
340.847
 30
0.0
 11
346.819
 21
340.847
 31
0.0
  0
LINE
  5
488
330
1F
100
AcDbEntity
  8
0
 62
     1
100
AcDbLine
 10
275.313
 20
395.898
 30
0.0
 11
346.761
 21
395.898
 31
0.0
  0
LINE
  5
489
330
1F
100
AcDbEntity
  8
0
 62
     1
100
AcDbLine
 10
346.761
 20
395.898
 30
0.0
 11
346.761
 21
420.497
 31
0.0
  0
LINE
  5
48A
330
1F
100
AcDbEntity
  8
0
 62
     1
100
AcDbLine
 10
346.761
 20
420.497
 30
0.0
 11
275.313
 21
420.497
 31
0.0
  0
LINE
  5
48B
330
1F
100
AcDbEntity
  8
0
 62
     1
100
AcDbLine
 10
275.313
 20
420.497
 30
0.0
 11
275.313
 21
395.898
 31
0.0
  0
SPLINE
  5
48C
330
1F
100
AcDbEntity
  8
0
 62
     1
100
AcDbSpline
 70
     0
 71
     3
 72
     8
 73
     4
 74
     0
 42
0.000000001
 43
0.0000001
 40
0.0
 40
0.0
 40
0.0
 40
0.0
 40
1.0
 40
1.0
 40
1.0
 40
1.0
 10
273.506
 20
425.7
 30
0.0
 10
274.336
 20
425.7
 30
0.0
 10
275.007
 20
425.03
 30
0.0
 10
275.007
 20
424.201
 30
0.0
  0
SPLINE
  5
48D
330
1F
100
AcDbEntity
  8
0
 62
     1
100
AcDbSpline
 70
     0
 71
     3
 72
     8
 73
     4
 74
     0
 42
0.000000001
 43
0.0000001
 40
0.0
 40
0.0
 40
0.0
 40
0.0
 40
1.0
 40
1.0
 40
1.0
 40
1.0
 10
275.007
 20
424.201
 30
0.0
 10
275.007
 20
423.372
 30
0.0
 10
274.336
 20
422.702
 30
0.0
 10
273.506
 20
422.702
 30
0.0
  0
SPLINE
  5
48E
330
1F
100
AcDbEntity
  8
0
 62
     1
100
AcDbSpline
 70
     0
 71
     3
 72
     8
 73
     4
 74
     0
 42
0.000000001
 43
0.0000001
 40
0.0
 40
0.0
 40
0.0
 40
0.0
 40
1.0
 40
1.0
 40
1.0
 40
1.0
 10
273.506
 20
422.702
 30
0.0
 10
272.678
 20
422.702
 30
0.0
 10
272.007
 20
423.372
 30
0.0
 10
272.007
 20
424.201
 30
0.0
  0
SPLINE
  5
48F
330
1F
100
AcDbEntity
  8
0
 62
     1
100
AcDbSpline
 70
     0
 71
     3
 72
     8
 73
     4
 74
     0
 42
0.000000001
 43
0.0000001
 40
0.0
 40
0.0
 40
0.0
 40
0.0
 40
1.0
 40
1.0
 40
1.0
 40
1.0
 10
272.007
 20
424.201
 30
0.0
 10
272.007
 20
425.03
 30
0.0
 10
272.678
 20
425.7
 30
0.0
 10
273.506
 20
425.7
 30
0.0
  0
LINE
  5
490
330
1F
100
AcDbEntity
  8
0
 62
     1
100
AcDbLine
 10
273.506
 20
425.7
 30
0.0
 11
273.506
 21
425.7
 31
0.0
  0
SPLINE
  5
491
330
1F
100
AcDbEntity
  8
0
 62
     1
100
AcDbSpline
 70
     0
 71
     3
 72
     8
 73
     4
 74
     0
 42
0.000000001
 43
0.0000001
 40
0.0
 40
0.0
 40
0.0
 40
0.0
 40
1.0
 40
1.0
 40
1.0
 40
1.0
 10
273.536
 20
394.712
 30
0.0
 10
274.365
 20
394.712
 30
0.0
 10
275.037
 20
394.042
 30
0.0
 10
275.037
 20
393.213
 30
0.0
  0
SPLINE
  5
492
330
1F
100
AcDbEntity
  8
0
 62
     1
100
AcDbSpline
 70
     0
 71
     3
 72
     8
 73
     4
 74
     0
 42
0.000000001
 43
0.0000001
 40
0.0
 40
0.0
 40
0.0
 40
0.0
 40
1.0
 40
1.0
 40
1.0
 40
1.0
 10
275.037
 20
393.213
 30
0.0
 10
275.037
 20
392.384
 30
0.0
 10
274.365
 20
391.71
 30
0.0
 10
273.536
 20
391.71
 30
0.0
  0
SPLINE
  5
493
330
1F
100
AcDbEntity
  8
0
 62
     1
100
AcDbSpline
 70
     0
 71
     3
 72
     8
 73
     4
 74
     0
 42
0.000000001
 43
0.0000001
 40
0.0
 40
0.0
 40
0.0
 40
0.0
 40
1.0
 40
1.0
 40
1.0
 40
1.0
 10
273.536
 20
391.71
 30
0.0
 10
272.708
 20
391.71
 30
0.0
 10
272.037
 20
392.384
 30
0.0
 10
272.037
 20
393.213
 30
0.0
  0
SPLINE
  5
494
330
1F
100
AcDbEntity
  8
0
 62
     1
100
AcDbSpline
 70
     0
 71
     3
 72
     8
 73
     4
 74
     0
 42
0.000000001
 43
0.0000001
 40
0.0
 40
0.0
 40
0.0
 40
0.0
 40
1.0
 40
1.0
 40
1.0
 40
1.0
 10
272.037
 20
393.213
 30
0.0
 10
272.037
 20
394.042
 30
0.0
 10
272.708
 20
394.712
 30
0.0
 10
273.536
 20
394.712
 30
0.0
  0
LINE
  5
495
330
1F
100
AcDbEntity
  8
0
 62
     1
100
AcDbLine
 10
273.536
 20
394.712
 30
0.0
 11
273.536
 21
394.712
 31
0.0
  0
SPLINE
  5
496
330
1F
100
AcDbEntity
  8
0
 62
     1
100
AcDbSpline
 70
     0
 71
     3
 72
     8
 73
     4
 74
     0
 42
0.000000001
 43
0.0000001
 40
0.0
 40
0.0
 40
0.0
 40
0.0
 40
1.0
 40
1.0
 40
1.0
 40
1.0
 10
348.492
 20
425.7
 30
0.0
 10
349.32
 20
425.7
 30
0.0
 10
349.992
 20
425.03
 30
0.0
 10
349.992
 20
424.201
 30
0.0
  0
SPLINE
  5
497
330
1F
100
AcDbEntity
  8
0
 62
     1
100
AcDbSpline
 70
     0
 71
     3
 72
     8
 73
     4
 74
     0
 42
0.000000001
 43
0.0000001
 40
0.0
 40
0.0
 40
0.0
 40
0.0
 40
1.0
 40
1.0
 40
1.0
 40
1.0
 10
349.992
 20
424.201
 30
0.0
 10
349.992
 20
423.372
 30
0.0
 10
349.32
 20
422.702
 30
0.0
 10
348.492
 20
422.702
 30
0.0
  0
SPLINE
  5
498
330
1F
100
AcDbEntity
  8
0
 62
     1
100
AcDbSpline
 70
     0
 71
     3
 72
     8
 73
     4
 74
     0
 42
0.000000001
 43
0.0000001
 40
0.0
 40
0.0
 40
0.0
 40
0.0
 40
1.0
 40
1.0
 40
1.0
 40
1.0
 10
348.492
 20
422.702
 30
0.0
 10
347.664
 20
422.702
 30
0.0
 10
346.992
 20
423.372
 30
0.0
 10
346.992
 20
424.201
 30
0.0
  0
SPLINE
  5
499
330
1F
100
AcDbEntity
  8
0
 62
     1
100
AcDbSpline
 70
     0
 71
     3
 72
     8
 73
     4
 74
     0
 42
0.000000001
 43
0.0000001
 40
0.0
 40
0.0
 40
0.0
 40
0.0
 40
1.0
 40
1.0
 40
1.0
 40
1.0
 10
346.992
 20
424.201
 30
0.0
 10
346.992
 20
425.03
 30
0.0
 10
347.664
 20
425.7
 30
0.0
 10
348.492
 20
425.7
 30
0.0
  0
LINE
  5
49A
330
1F
100
AcDbEntity
  8
0
 62
     1
100
AcDbLine
 10
348.492
 20
425.7
 30
0.0
 11
348.492
 21
425.7
 31
0.0
  0
SPLINE
  5
49B
330
1F
100
AcDbEntity
  8
0
 62
     1
100
AcDbSpline
 70
     0
 71
     3
 72
     8
 73
     4
 74
     0
 42
0.000000001
 43
0.0000001
 40
0.0
 40
0.0
 40
0.0
 40
0.0
 40
1.0
 40
1.0
 40
1.0
 40
1.0
 10
348.521
 20
394.712
 30
0.0
 10
349.351
 20
394.712
 30
0.0
 10
350.022
 20
394.042
 30
0.0
 10
350.022
 20
393.213
 30
0.0
  0
SPLINE
  5
49C
330
1F
100
AcDbEntity
  8
0
 62
     1
100
AcDbSpline
 70
     0
 71
     3
 72
     8
 73
     4
 74
     0
 42
0.000000001
 43
0.0000001
 40
0.0
 40
0.0
 40
0.0
 40
0.0
 40
1.0
 40
1.0
 40
1.0
 40
1.0
 10
350.022
 20
393.213
 30
0.0
 10
350.022
 20
392.384
 30
0.0
 10
349.351
 20
391.71
 30
0.0
 10
348.521
 20
391.71
 30
0.0
  0
SPLINE
  5
49D
330
1F
100
AcDbEntity
  8
0
 62
     1
100
AcDbSpline
 70
     0
 71
     3
 72
     8
 73
     4
 74
     0
 42
0.000000001
 43
0.0000001
 40
0.0
 40
0.0
 40
0.0
 40
0.0
 40
1.0
 40
1.0
 40
1.0
 40
1.0
 10
348.521
 20
391.71
 30
0.0
 10
347.693
 20
391.71
 30
0.0
 10
347.022
 20
392.384
 30
0.0
 10
347.022
 20
393.213
 30
0.0
  0
SPLINE
  5
49E
330
1F
100
AcDbEntity
  8
0
 62
     1
100
AcDbSpline
 70
     0
 71
     3
 72
     8
 73
     4
 74
     0
 42
0.000000001
 43
0.0000001
 40
0.0
 40
0.0
 40
0.0
 40
0.0
 40
1.0
 40
1.0
 40
1.0
 40
1.0
 10
347.022
 20
393.213
 30
0.0
 10
347.022
 20
394.042
 30
0.0
 10
347.693
 20
394.712
 30
0.0
 10
348.521
 20
394.712
 30
0.0
  0
LINE
  5
49F
330
1F
100
AcDbEntity
  8
0
 62
     1
100
AcDbLine
 10
348.521
 20
394.712
 30
0.0
 11
348.521
 21
394.712
 31
0.0
  0
LINE
  5
4A0
330
1F
100
AcDbEntity
  8
0
 62
     1
100
AcDbLine
 10
261.036
 20
441.699
 30
0.0
 11
261.036
 21
423.7
 31
0.0
  0
LINE
  5
4A1
330
1F
100
AcDbEntity
  8
0
 62
     1
100
AcDbLine
 10
261.036
 20
423.7
 30
0.0
 11
264.036
 21
423.7
 31
0.0
  0
LINE
  5
4A2
330
1F
100
AcDbEntity
  8
0
 62
     1
100
AcDbLine
 10
264.036
 20
423.7
 30
0.0
 11
264.036
 21
411.699
 31
0.0
  0
LINE
  5
4A3
330
1F
100
AcDbEntity
  8
0
 62
     1
100
AcDbLine
 10
264.036
 20
411.699
 30
0.0
 11
261.036
 21
411.699
 31
0.0
  0
LINE
  5
4A4
330
1F
100
AcDbEntity
  8
0
 62
     1
100
AcDbLine
 10
261.036
 20
411.699
 30
0.0
 11
261.036
 21
399.701
 31
0.0
  0
LINE
  5
4A5
330
1F
100
AcDbEntity
  8
0
 62
     1
100
AcDbLine
 10
261.036
 20
399.701
 30
0.0
 11
264.036
 21
399.701
 31
0.0
  0
LINE
  5
4A6
330
1F
100
AcDbEntity
  8
0
 62
     1
100
AcDbLine
 10
264.036
 20
399.701
 30
0.0
 11
264.036
 21
387.699
 31
0.0
  0
LINE
  5
4A7
330
1F
100
AcDbEntity
  8
0
 62
     1
100
AcDbLine
 10
264.036
 20
387.699
 30
0.0
 11
261.036
 21
387.699
 31
0.0
  0
LINE
  5
4A8
330
1F
100
AcDbEntity
  8
0
 62
     1
100
AcDbLine
 10
261.036
 20
387.699
 30
0.0
 11
261.036
 21
375.701
 31
0.0
  0
LINE
  5
4A9
330
1F
100
AcDbEntity
  8
0
 62
     1
100
AcDbLine
 10
261.036
 20
375.701
 30
0.0
 11
264.036
 21
375.701
 31
0.0
  0
LINE
  5
4AA
330
1F
100
AcDbEntity
  8
0
 62
     1
100
AcDbLine
 10
264.036
 20
375.701
 30
0.0
 11
264.036
 21
363.7
 31
0.0
  0
LINE
  5
4AB
330
1F
100
AcDbEntity
  8
0
 62
     1
100
AcDbLine
 10
264.036
 20
363.7
 30
0.0
 11
261.036
 21
363.7
 31
0.0
  0
LINE
  5
4AC
330
1F
100
AcDbEntity
  8
0
 62
     1
100
AcDbLine
 10
261.036
 20
363.7
 30
0.0
 11
261.036
 21
351.7
 31
0.0
  0
LINE
  5
4AD
330
1F
100
AcDbEntity
  8
0
 62
     1
100
AcDbLine
 10
261.036
 20
351.7
 30
0.0
 11
264.036
 21
351.7
 31
0.0
  0
LINE
  5
4AE
330
1F
100
AcDbEntity
  8
0
 62
     1
100
AcDbLine
 10
264.036
 20
351.7
 30
0.0
 11
264.036
 21
339.7
 31
0.0
  0
LINE
  5
4AF
330
1F
100
AcDbEntity
  8
0
 62
     1
100
AcDbLine
 10
264.036
 20
339.7
 30
0.0
 11
261.036
 21
339.7
 31
0.0
  0
LINE
  5
4B0
330
1F
100
AcDbEntity
  8
0
 62
     1
100
AcDbLine
 10
261.036
 20
339.7
 30
0.0
 11
261.036
 21
327.7
 31
0.0
  0
LINE
  5
4B1
330
1F
100
AcDbEntity
  8
0
 62
     1
100
AcDbLine
 10
261.036
 20
327.7
 30
0.0
 11
261.036
 21
321.7
 31
0.0
  0
LINE
  5
4B2
330
1F
100
AcDbEntity
  8
0
 62
     1
100
AcDbLine
 10
261.036
 20
321.7
 30
0.0
 11
281.037
 21
321.7
 31
0.0
  0
LINE
  5
4B3
330
1F
100
AcDbEntity
  8
0
 62
     1
100
AcDbLine
 10
281.037
 20
321.7
 30
0.0
 11
281.037
 21
324.7
 31
0.0
  0
LINE
  5
4B4
330
1F
100
AcDbEntity
  8
0
 62
     1
100
AcDbLine
 10
281.037
 20
324.7
 30
0.0
 11
293.037
 21
324.7
 31
0.0
  0
LINE
  5
4B5
330
1F
100
AcDbEntity
  8
0
 62
     1
100
AcDbLine
 10
293.037
 20
324.7
 30
0.0
 11
293.037
 21
321.7
 31
0.0
  0
LINE
  5
4B6
330
1F
100
AcDbEntity
  8
0
 62
     1
100
AcDbLine
 10
293.037
 20
321.7
 30
0.0
 11
305.037
 21
321.7
 31
0.0
  0
LINE
  5
4B7
330
1F
100
AcDbEntity
  8
0
 62
     1
100
AcDbLine
 10
305.037
 20
321.7
 30
0.0
 11
305.037
 21
324.7
 31
0.0
  0
LINE
  5
4B8
330
1F
100
AcDbEntity
  8
0
 62
     1
100
AcDbLine
 10
305.037
 20
324.7
 30
0.0
 11
317.037
 21
324.7
 31
0.0
  0
LINE
  5
4B9
330
1F
100
AcDbEntity
  8
0
 62
     1
100
AcDbLine
 10
317.037
 20
324.7
 30
0.0
 11
317.037
 21
321.7
 31
0.0
  0
LINE
  5
4BA
330
1F
100
AcDbEntity
  8
0
 62
     1
100
AcDbLine
 10
317.037
 20
321.7
 30
0.0
 11
329.037
 21
321.7
 31
0.0
  0
LINE
  5
4BB
330
1F
100
AcDbEntity
  8
0
 62
     1
100
AcDbLine
 10
329.037
 20
321.7
 30
0.0
 11
329.037
 21
324.7
 31
0.0
  0
LINE
  5
4BC
330
1F
100
AcDbEntity
  8
0
 62
     1
100
AcDbLine
 10
329.037
 20
324.7
 30
0.0
 11
341.037
 21
324.7
 31
0.0
  0
LINE
  5
4BD
330
1F
100
AcDbEntity
  8
0
 62
     1
100
AcDbLine
 10
341.037
 20
324.7
 30
0.0
 11
341.037
 21
321.7
 31
0.0
  0
LINE
  5
4BE
330
1F
100
AcDbEntity
  8
0
 62
     1
100
AcDbLine
 10
341.037
 20
321.7
 30
0.0
 11
353.035
 21
321.7
 31
0.0
  0
LINE
  5
4BF
330
1F
100
AcDbEntity
  8
0
 62
     1
100
AcDbLine
 10
353.035
 20
321.7
 30
0.0
 11
361.036
 21
321.7
 31
0.0
  0
LINE
  5
4C0
330
1F
100
AcDbEntity
  8
0
 62
     1
100
AcDbLine
 10
361.036
 20
321.7
 30
0.0
 11
361.036
 21
339.7
 31
0.0
  0
LINE
  5
4C1
330
1F
100
AcDbEntity
  8
0
 62
     1
100
AcDbLine
 10
361.036
 20
339.7
 30
0.0
 11
358.038
 21
339.7
 31
0.0
  0
LINE
  5
4C2
330
1F
100
AcDbEntity
  8
0
 62
     1
100
AcDbLine
 10
358.038
 20
339.7
 30
0.0
 11
358.038
 21
351.7
 31
0.0
  0
LINE
  5
4C3
330
1F
100
AcDbEntity
  8
0
 62
     1
100
AcDbLine
 10
358.038
 20
351.7
 30
0.0
 11
361.036
 21
351.7
 31
0.0
  0
LINE
  5
4C4
330
1F
100
AcDbEntity
  8
0
 62
     1
100
AcDbLine
 10
361.036
 20
351.7
 30
0.0
 11
361.036
 21
363.7
 31
0.0
  0
LINE
  5
4C5
330
1F
100
AcDbEntity
  8
0
 62
     1
100
AcDbLine
 10
361.036
 20
363.7
 30
0.0
 11
358.038
 21
363.7
 31
0.0
  0
LINE
  5
4C6
330
1F
100
AcDbEntity
  8
0
 62
     1
100
AcDbLine
 10
358.038
 20
363.7
 30
0.0
 11
358.038
 21
375.701
 31
0.0
  0
LINE
  5
4C7
330
1F
100
AcDbEntity
  8
0
 62
     1
100
AcDbLine
 10
358.038
 20
375.701
 30
0.0
 11
361.036
 21
375.701
 31
0.0
  0
LINE
  5
4C8
330
1F
100
AcDbEntity
  8
0
 62
     1
100
AcDbLine
 10
361.036
 20
375.701
 30
0.0
 11
361.036
 21
387.699
 31
0.0
  0
LINE
  5
4C9
330
1F
100
AcDbEntity
  8
0
 62
     1
100
AcDbLine
 10
361.036
 20
387.699
 30
0.0
 11
358.038
 21
387.699
 31
0.0
  0
LINE
  5
4CA
330
1F
100
AcDbEntity
  8
0
 62
     1
100
AcDbLine
 10
358.038
 20
387.699
 30
0.0
 11
358.038
 21
399.701
 31
0.0
  0
LINE
  5
4CB
330
1F
100
AcDbEntity
  8
0
 62
     1
100
AcDbLine
 10
358.038
 20
399.701
 30
0.0
 11
361.036
 21
399.701
 31
0.0
  0
LINE
  5
4CC
330
1F
100
AcDbEntity
  8
0
 62
     1
100
AcDbLine
 10
361.036
 20
399.701
 30
0.0
 11
361.036
 21
411.699
 31
0.0
  0
LINE
  5
4CD
330
1F
100
AcDbEntity
  8
0
 62
     1
100
AcDbLine
 10
361.036
 20
411.699
 30
0.0
 11
358.038
 21
411.699
 31
0.0
  0
LINE
  5
4CE
330
1F
100
AcDbEntity
  8
0
 62
     1
100
AcDbLine
 10
358.038
 20
411.699
 30
0.0
 11
358.038
 21
423.7
 31
0.0
  0
LINE
  5
4CF
330
1F
100
AcDbEntity
  8
0
 62
     1
100
AcDbLine
 10
358.038
 20
423.7
 30
0.0
 11
361.036
 21
423.7
 31
0.0
  0
LINE
  5
4D0
330
1F
100
AcDbEntity
  8
0
 62
     1
100
AcDbLine
 10
361.036
 20
423.7
 30
0.0
 11
361.036
 21
435.702
 31
0.0
  0
LINE
  5
4D1
330
1F
100
AcDbEntity
  8
0
 62
     1
100
AcDbLine
 10
361.036
 20
435.702
 30
0.0
 11
361.036
 21
441.699
 31
0.0
  0
LINE
  5
4D2
330
1F
100
AcDbEntity
  8
0
 62
     1
100
AcDbLine
 10
361.036
 20
441.699
 30
0.0
 11
341.037
 21
441.699
 31
0.0
  0
LINE
  5
4D3
330
1F
100
AcDbEntity
  8
0
 62
     1
100
AcDbLine
 10
341.037
 20
441.699
 30
0.0
 11
341.037
 21
438.7
 31
0.0
  0
LINE
  5
4D4
330
1F
100
AcDbEntity
  8
0
 62
     1
100
AcDbLine
 10
341.037
 20
438.7
 30
0.0
 11
329.037
 21
438.7
 31
0.0
  0
LINE
  5
4D5
330
1F
100
AcDbEntity
  8
0
 62
     1
100
AcDbLine
 10
329.037
 20
438.7
 30
0.0
 11
329.037
 21
441.699
 31
0.0
  0
LINE
  5
4D6
330
1F
100
AcDbEntity
  8
0
 62
     1
100
AcDbLine
 10
329.037
 20
441.699
 30
0.0
 11
317.037
 21
441.699
 31
0.0
  0
LINE
  5
4D7
330
1F
100
AcDbEntity
  8
0
 62
     1
100
AcDbLine
 10
317.037
 20
441.699
 30
0.0
 11
317.037
 21
438.7
 31
0.0
  0
LINE
  5
4D8
330
1F
100
AcDbEntity
  8
0
 62
     1
100
AcDbLine
 10
317.037
 20
438.7
 30
0.0
 11
305.037
 21
438.7
 31
0.0
  0
LINE
  5
4D9
330
1F
100
AcDbEntity
  8
0
 62
     1
100
AcDbLine
 10
305.037
 20
438.7
 30
0.0
 11
305.037
 21
441.699
 31
0.0
  0
LINE
  5
4DA
330
1F
100
AcDbEntity
  8
0
 62
     1
100
AcDbLine
 10
305.037
 20
441.699
 30
0.0
 11
293.037
 21
441.699
 31
0.0
  0
LINE
  5
4DB
330
1F
100
AcDbEntity
  8
0
 62
     1
100
AcDbLine
 10
293.037
 20
441.699
 30
0.0
 11
293.037
 21
438.7
 31
0.0
  0
LINE
  5
4DC
330
1F
100
AcDbEntity
  8
0
 62
     1
100
AcDbLine
 10
293.037
 20
438.7
 30
0.0
 11
281.037
 21
438.7
 31
0.0
  0
LINE
  5
4DD
330
1F
100
AcDbEntity
  8
0
 62
     1
100
AcDbLine
 10
281.037
 20
438.7
 30
0.0
 11
281.037
 21
441.699
 31
0.0
  0
LINE
  5
4DE
330
1F
100
AcDbEntity
  8
0
 62
     1
100
AcDbLine
 10
281.037
 20
441.699
 30
0.0
 11
269.037
 21
441.699
 31
0.0
  0
LINE
  5
4DF
330
1F
100
AcDbEntity
  8
0
 62
     1
100
AcDbLine
 10
269.037
 20
441.699
 30
0.0
 11
261.036
 21
441.699
 31
0.0
  0
LINE
  5
4E0
330
1F
100
AcDbEntity
  8
0
 62
     0
100
AcDbLine
 10
270.684
 20
332.439
 30
0.0
 11
304.757
 21
332.439
 31
0.0
  0
LINE
  5
4E1
330
1F
100
AcDbEntity
  8
0
 62
     0
100
AcDbLine
 10
304.757
 20
332.439
 30
0.0
 11
304.757
 21
371.048
 31
0.0
  0
LINE
  5
4E2
330
1F
100
AcDbEntity
  8
0
 62
     0
100
AcDbLine
 10
304.757
 20
371.048
 30
0.0
 11
270.684
 21
371.048
 31
0.0
  0
LINE
  5
4E3
330
1F
100
AcDbEntity
  8
0
 62
     0
100
AcDbLine
 10
270.684
 20
371.048
 30
0.0
 11
270.684
 21
332.439
 31
0.0
  0
SPLINE
  5
4E4
330
1F
100
AcDbEntity
  8
0
 62
     0
100
AcDbSpline
 70
     0
 71
     3
 72
     8
 73
     4
 74
     0
 42
0.000000001
 43
0.0000001
 40
0.0
 40
0.0
 40
0.0
 40
0.0
 40
1.0
 40
1.0
 40
1.0
 40
1.0
 10
334.546
 20
370.138
 30
0.0
 10
344.729
 20
370.138
 30
0.0
 10
352.982
 20
361.883
 30
0.0
 10
352.982
 20
351.701
 30
0.0
  0
SPLINE
  5
4E5
330
1F
100
AcDbEntity
  8
0
 62
     0
100
AcDbSpline
 70
     0
 71
     3
 72
     8
 73
     4
 74
     0
 42
0.000000001
 43
0.0000001
 40
0.0
 40
0.0
 40
0.0
 40
0.0
 40
1.0
 40
1.0
 40
1.0
 40
1.0
 10
352.982
 20
351.701
 30
0.0
 10
352.982
 20
341.521
 30
0.0
 10
344.729
 20
333.266
 30
0.0
 10
334.546
 20
333.266
 30
0.0
  0
SPLINE
  5
4E6
330
1F
100
AcDbEntity
  8
0
 62
     0
100
AcDbSpline
 70
     0
 71
     3
 72
     8
 73
     4
 74
     0
 42
0.000000001
 43
0.0000001
 40
0.0
 40
0.0
 40
0.0
 40
0.0
 40
1.0
 40
1.0
 40
1.0
 40
1.0
 10
334.546
 20
333.266
 30
0.0
 10
324.365
 20
333.266
 30
0.0
 10
316.111
 20
341.521
 30
0.0
 10
316.111
 20
351.701
 30
0.0
  0
SPLINE
  5
4E7
330
1F
100
AcDbEntity
  8
0
 62
     0
100
AcDbSpline
 70
     0
 71
     3
 72
     8
 73
     4
 74
     0
 42
0.000000001
 43
0.0000001
 40
0.0
 40
0.0
 40
0.0
 40
0.0
 40
1.0
 40
1.0
 40
1.0
 40
1.0
 10
316.111
 20
351.701
 30
0.0
 10
316.111
 20
361.883
 30
0.0
 10
324.365
 20
370.138
 30
0.0
 10
334.546
 20
370.138
 30
0.0
  0
LINE
  5
4E8
330
1F
100
AcDbEntity
  8
0
 62
     0
100
AcDbLine
 10
334.546
 20
370.138
 30
0.0
 11
334.546
 21
370.138
 31
0.0
  0
LINE
  5
4E9
330
1F
100
AcDbEntity
  8
0
 62
     1
100
AcDbLine
 10
394.212
 20
242.5
 30
0.0
 11
397.711
 21
242.5
 31
0.0
  0
LINE
  5
4EA
330
1F
100
AcDbEntity
  8
0
 62
     1
100
AcDbLine
 10
397.711
 20
242.5
 30
0.0
 11
397.711
 21
239.5
 31
0.0
  0
LINE
  5
4EB
330
1F
100
AcDbEntity
  8
0
 62
     1
100
AcDbLine
 10
397.711
 20
239.5
 30
0.0
 11
409.713
 21
239.5
 31
0.0
  0
LINE
  5
4EC
330
1F
100
AcDbEntity
  8
0
 62
     1
100
AcDbLine
 10
409.713
 20
239.5
 30
0.0
 11
409.713
 21
242.5
 31
0.0
  0
LINE
  5
4ED
330
1F
100
AcDbEntity
  8
0
 62
     1
100
AcDbLine
 10
409.713
 20
242.5
 30
0.0
 11
413.212
 21
242.5
 31
0.0
  0
LINE
  5
4EE
330
1F
100
AcDbEntity
  8
0
 62
     1
100
AcDbLine
 10
413.212
 20
242.5
 30
0.0
 11
413.212
 21
259.5
 31
0.0
  0
LINE
  5
4EF
330
1F
100
AcDbEntity
  8
0
 62
     1
100
AcDbLine
 10
413.212
 20
259.5
 30
0.0
 11
416.211
 21
259.5
 31
0.0
  0
LINE
  5
4F0
330
1F
100
AcDbEntity
  8
0
 62
     1
100
AcDbLine
 10
416.211
 20
259.5
 30
0.0
 11
416.211
 21
271.5
 31
0.0
  0
LINE
  5
4F1
330
1F
100
AcDbEntity
  8
0
 62
     1
100
AcDbLine
 10
416.211
 20
271.5
 30
0.0
 11
413.212
 21
271.5
 31
0.0
  0
LINE
  5
4F2
330
1F
100
AcDbEntity
  8
0
 62
     1
100
AcDbLine
 10
413.212
 20
271.5
 30
0.0
 11
413.212
 21
283.5
 31
0.0
  0
LINE
  5
4F3
330
1F
100
AcDbEntity
  8
0
 62
     1
100
AcDbLine
 10
413.212
 20
283.5
 30
0.0
 11
416.211
 21
283.5
 31
0.0
  0
LINE
  5
4F4
330
1F
100
AcDbEntity
  8
0
 62
     1
100
AcDbLine
 10
416.211
 20
283.5
 30
0.0
 11
416.211
 21
295.5
 31
0.0
  0
LINE
  5
4F5
330
1F
100
AcDbEntity
  8
0
 62
     1
100
AcDbLine
 10
416.211
 20
295.5
 30
0.0
 11
413.212
 21
295.5
 31
0.0
  0
LINE
  5
4F6
330
1F
100
AcDbEntity
  8
0
 62
     1
100
AcDbLine
 10
413.212
 20
295.5
 30
0.0
 11
413.212
 21
307.499
 31
0.0
  0
LINE
  5
4F7
330
1F
100
AcDbEntity
  8
0
 62
     1
100
AcDbLine
 10
413.212
 20
307.499
 30
0.0
 11
416.211
 21
307.499
 31
0.0
  0
LINE
  5
4F8
330
1F
100
AcDbEntity
  8
0
 62
     1
100
AcDbLine
 10
416.211
 20
307.499
 30
0.0
 11
416.211
 21
319.5
 31
0.0
  0
LINE
  5
4F9
330
1F
100
AcDbEntity
  8
0
 62
     1
100
AcDbLine
 10
416.211
 20
319.5
 30
0.0
 11
413.212
 21
319.5
 31
0.0
  0
LINE
  5
4FA
330
1F
100
AcDbEntity
  8
0
 62
     1
100
AcDbLine
 10
413.212
 20
319.5
 30
0.0
 11
413.212
 21
331.5
 31
0.0
  0
LINE
  5
4FB
330
1F
100
AcDbEntity
  8
0
 62
     1
100
AcDbLine
 10
413.212
 20
331.5
 30
0.0
 11
413.212
 21
336.5
 31
0.0
  0
LINE
  5
4FC
330
1F
100
AcDbEntity
  8
0
 62
     1
100
AcDbLine
 10
413.212
 20
336.5
 30
0.0
 11
409.713
 21
336.5
 31
0.0
  0
LINE
  5
4FD
330
1F
100
AcDbEntity
  8
0
 62
     1
100
AcDbLine
 10
409.713
 20
336.5
 30
0.0
 11
409.713
 21
339.5
 31
0.0
  0
LINE
  5
4FE
330
1F
100
AcDbEntity
  8
0
 62
     1
100
AcDbLine
 10
409.713
 20
339.5
 30
0.0
 11
397.711
 21
339.5
 31
0.0
  0
LINE
  5
4FF
330
1F
100
AcDbEntity
  8
0
 62
     1
100
AcDbLine
 10
397.711
 20
339.5
 30
0.0
 11
397.711
 21
336.5
 31
0.0
  0
LINE
  5
500
330
1F
100
AcDbEntity
  8
0
 62
     1
100
AcDbLine
 10
397.711
 20
336.5
 30
0.0
 11
394.212
 21
336.5
 31
0.0
  0
LINE
  5
501
330
1F
100
AcDbEntity
  8
0
 62
     1
100
AcDbLine
 10
394.212
 20
336.5
 30
0.0
 11
394.212
 21
319.5
 31
0.0
  0
LINE
  5
502
330
1F
100
AcDbEntity
  8
0
 62
     1
100
AcDbLine
 10
394.212
 20
319.5
 30
0.0
 11
391.209
 21
319.5
 31
0.0
  0
LINE
  5
503
330
1F
100
AcDbEntity
  8
0
 62
     1
100
AcDbLine
 10
391.209
 20
319.5
 30
0.0
 11
391.209
 21
307.499
 31
0.0
  0
LINE
  5
504
330
1F
100
AcDbEntity
  8
0
 62
     1
100
AcDbLine
 10
391.209
 20
307.499
 30
0.0
 11
394.212
 21
307.499
 31
0.0
  0
LINE
  5
505
330
1F
100
AcDbEntity
  8
0
 62
     1
100
AcDbLine
 10
394.212
 20
307.499
 30
0.0
 11
394.212
 21
295.5
 31
0.0
  0
LINE
  5
506
330
1F
100
AcDbEntity
  8
0
 62
     1
100
AcDbLine
 10
394.212
 20
295.5
 30
0.0
 11
391.209
 21
295.5
 31
0.0
  0
LINE
  5
507
330
1F
100
AcDbEntity
  8
0
 62
     1
100
AcDbLine
 10
391.209
 20
295.5
 30
0.0
 11
391.209
 21
283.5
 31
0.0
  0
LINE
  5
508
330
1F
100
AcDbEntity
  8
0
 62
     1
100
AcDbLine
 10
391.209
 20
283.5
 30
0.0
 11
394.212
 21
283.5
 31
0.0
  0
LINE
  5
509
330
1F
100
AcDbEntity
  8
0
 62
     1
100
AcDbLine
 10
394.212
 20
283.5
 30
0.0
 11
394.212
 21
271.5
 31
0.0
  0
LINE
  5
50A
330
1F
100
AcDbEntity
  8
0
 62
     1
100
AcDbLine
 10
394.212
 20
271.5
 30
0.0
 11
391.209
 21
271.5
 31
0.0
  0
LINE
  5
50B
330
1F
100
AcDbEntity
  8
0
 62
     1
100
AcDbLine
 10
391.209
 20
271.5
 30
0.0
 11
391.209
 21
259.5
 31
0.0
  0
LINE
  5
50C
330
1F
100
AcDbEntity
  8
0
 62
     1
100
AcDbLine
 10
391.209
 20
259.5
 30
0.0
 11
394.212
 21
259.5
 31
0.0
  0
LINE
  5
50D
330
1F
100
AcDbEntity
  8
0
 62
     1
100
AcDbLine
 10
394.212
 20
259.5
 30
0.0
 11
394.212
 21
247.5
 31
0.0
  0
LINE
  5
50E
330
1F
100
AcDbEntity
  8
0
 62
     1
100
AcDbLine
 10
394.212
 20
247.5
 30
0.0
 11
394.212
 21
242.5
 31
0.0
  0
LINE
  5
50F
330
1F
100
AcDbEntity
  8
0
 62
     1
100
AcDbLine
 10
407.046
 20
249.13
 30
0.0
 11
400.378
 21
249.13
 31
0.0
  0
SPLINE
  5
510
330
1F
100
AcDbEntity
  8
0
 62
     1
100
AcDbSpline
 70
     0
 71
     3
 72
     8
 73
     4
 74
     0
 42
0.000000001
 43
0.0000001
 40
0.0
 40
0.0
 40
0.0
 40
0.0
 40
1.0
 40
1.0
 40
1.0
 40
1.0
 10
400.378
 20
249.13
 30
0.0
 10
405.934
 20
249.13
 30
0.0
 10
408.714
 20
251.908
 30
0.0
 10
408.714
 20
257.463
 30
0.0
  0
LINE
  5
511
330
1F
100
AcDbEntity
  8
0
 62
     1
100
AcDbLine
 10
408.714
 20
257.463
 30
0.0
 11
408.714
 21
267.463
 31
0.0
  0
SPLINE
  5
512
330
1F
100
AcDbEntity
  8
0
 62
     1
100
AcDbSpline
 70
     0
 71
     3
 72
     8
 73
     4
 74
     0
 42
0.000000001
 43
0.0000001
 40
0.0
 40
0.0
 40
0.0
 40
0.0
 40
1.0
 40
1.0
 40
1.0
 40
1.0
 10
408.714
 20
267.463
 30
0.0
 10
408.714
 20
273.018
 30
0.0
 10
405.934
 20
275.796
 30
0.0
 10
400.378
 20
275.796
 30
0.0
  0
LINE
  5
513
330
1F
100
AcDbEntity
  8
0
 62
     1
100
AcDbLine
 10
400.378
 20
275.796
 30
0.0
 11
407.046
 21
275.796
 31
0.0
  0
SPLINE
  5
514
330
1F
100
AcDbEntity
  8
0
 62
     1
100
AcDbSpline
 70
     0
 71
     3
 72
     8
 73
     4
 74
     0
 42
0.000000001
 43
0.0000001
 40
0.0
 40
0.0
 40
0.0
 40
0.0
 40
1.0
 40
1.0
 40
1.0
 40
1.0
 10
407.046
 20
275.796
 30
0.0
 10
401.489
 20
275.796
 30
0.0
 10
398.713
 20
273.018
 30
0.0
 10
398.713
 20
267.463
 30
0.0
  0
LINE
  5
515
330
1F
100
AcDbEntity
  8
0
 62
     1
100
AcDbLine
 10
398.713
 20
267.463
 30
0.0
 11
398.713
 21
257.463
 31
0.0
  0
SPLINE
  5
516
330
1F
100
AcDbEntity
  8
0
 62
     1
100
AcDbSpline
 70
     0
 71
     3
 72
     8
 73
     4
 74
     0
 42
0.000000001
 43
0.0000001
 40
0.0
 40
0.0
 40
0.0
 40
0.0
 40
1.0
 40
1.0
 40
1.0
 40
1.0
 10
398.713
 20
257.463
 30
0.0
 10
398.713
 20
251.908
 30
0.0
 10
401.489
 20
249.13
 30
0.0
 10
407.046
 20
249.13
 30
0.0
  0
LINE
  5
517
330
1F
100
AcDbEntity
  8
0
 62
     1
100
AcDbLine
 10
407.046
 20
249.13
 30
0.0
 11
407.046
 21
249.13
 31
0.0
  0
ENDSEC
  0
SECTION
  2
OBJECTS
  0
DICTIONARY
  5
C
330
0
100
AcDbDictionary
281
     1
  3
ACAD_DETAILVIEWSTYLE
350
5A2
  3
ACAD_GROUP
350
D
  3
ACAD_LAYOUT
350
1A
  3
ACAD_MATERIAL
350
555
  3
ACAD_MLEADERSTYLE
350
55B
  3
ACAD_MLINESTYLE
350
17
  3
ACAD_PLOTSETTINGS
350
19
  3
ACAD_PLOTSTYLENAME
350
E
  3
ACAD_SCALELIST
350
518
  3
ACAD_SECTIONVIEWSTYLE
350
5A3
  3
ACAD_TABLESTYLE
350
559
  3
ACAD_VISUALSTYLE
350
53C
  3
ACDB_RECOMPOSE_DATA
350
59E
  3
AcDbVariableDictionary
350
55F
  0
DICTIONARY
  5
55D
330
8
100
AcDbDictionary
280
     1
281
     1
  3
ACAD_XREC_ROUNDTRIP
360
55E
  0
DICTIONARY
  5
52
330
1F
100
AcDbDictionary
280
     1
281
     1
  3
ACAD_LAYOUTSELFREF
360
53
  0
DICTIONARY
  5
50
330
1B
100
AcDbDictionary
280
     1
281
     1
  3
ACAD_LAYOUTSELFREF
360
51
  0
DICTIONARY
  5
5A2
102
{ACAD_REACTORS
330
C
102
}
330
C
100
AcDbDictionary
281
     1
  0
DICTIONARY
  5
D
102
{ACAD_REACTORS
330
C
102
}
330
C
100
AcDbDictionary
281
     1
  0
DICTIONARY
  5
1A
102
{ACAD_REACTORS
330
C
102
}
330
C
100
AcDbDictionary
281
     1
  3
Layout1
350
53B
  3
Model
350
53A
  0
DICTIONARY
  5
555
102
{ACAD_REACTORS
330
C
102
}
330
C
100
AcDbDictionary
281
     1
  3
ByBlock
350
557
  3
ByLayer
350
556
  3
Global
350
558
  0
DICTIONARY
  5
55B
102
{ACAD_REACTORS
330
C
102
}
330
C
100
AcDbDictionary
281
     1
  3
Standard
350
55C
  0
DICTIONARY
  5
17
102
{ACAD_REACTORS
330
C
102
}
330
C
100
AcDbDictionary
281
     1
  3
STANDARD
350
18
  0
DICTIONARY
  5
19
102
{ACAD_REACTORS
330
C
102
}
330
C
100
AcDbDictionary
281
     1
  0
ACDBDICTIONARYWDFLT
  5
E
102
{ACAD_REACTORS
330
C
102
}
330
C
100
AcDbDictionary
281
     1
  3
Normal
350
F
100
AcDbDictionaryWithDefault
340
F
  0
DICTIONARY
  5
518
102
{ACAD_REACTORS
330
C
102
}
330
C
100
AcDbDictionary
281
     1
  3
A0
350
519
  3
A1
350
51A
  3
A2
350
51B
  3
A3
350
51C
  3
A4
350
51D
  3
A5
350
51E
  3
A6
350
51F
  3
A7
350
520
  3
A8
350
521
  3
A9
350
522
  3
B0
350
523
  3
B1
350
524
  3
B2
350
525
  3
B3
350
526
  3
B4
350
527
  3
B5
350
528
  3
B6
350
529
  3
B7
350
52A
  3
B8
350
52B
  3
B9
350
52C
  3
C0
350
52D
  3
C1
350
52E
  3
C2
350
52F
  3
C3
350
530
  3
C4
350
531
  3
C5
350
532
  3
C6
350
533
  3
C7
350
534
  3
C8
350
535
  3
C9
350
536
  3
D0
350
537
  3
D1
350
538
  3
D2
350
539
  0
DICTIONARY
  5
5A3
102
{ACAD_REACTORS
330
C
102
}
330
C
100
AcDbDictionary
281
     1
  0
DICTIONARY
  5
559
102
{ACAD_REACTORS
330
C
102
}
330
C
100
AcDbDictionary
281
     1
  3
Standard
350
55A
  0
DICTIONARY
  5
53C
102
{ACAD_REACTORS
330
C
102
}
330
C
100
AcDbDictionary
281
     1
  3
2dWireframe
350
541
  3
Basic
350
544
  3
Brighten
350
548
  3
ColorChange
350
54C
  3
Conceptual
350
546
  3
Dim
350
547
  3
EdgeColorOff
350
54F
  3
Facepattern
350
54B
  3
Flat
350
53D
  3
FlatWithEdges
350
53E
  3
Gouraud
350
53F
  3
GouraudWithEdges
350
540
  3
Hidden
350
543
  3
JitterOff
350
54D
  3
Linepattern
350
54A
  3
OverhangOff
350
54E
  3
Realistic
350
545
  3
Shaded
350
554
  3
Shaded with edges
350
553
  3
Shades of Gray
350
550
  3
Sketchy
350
551
  3
Thicken
350
549
  3
Wireframe
350
542
  3
X-Ray
350
552
  0
XRECORD
  5
59E
102
{ACAD_REACTORS
330
C
102
}
330
C
100
AcDbXrecord
280
     1
 90
        1
330
55A
  0
DICTIONARY
  5
55F
102
{ACAD_REACTORS
330
C
102
}
330
C
100
AcDbDictionary
281
     1
  3
CANNOSCALE
350
560
  3
CMLEADERSTYLE
350
5A0
  3
CTABLESTYLE
350
59F
  3
MSLTSCALE
350
5A1
  3
XCLIPFRAME
350
561
  0
XRECORD
  5
55E
102
{ACAD_REACTORS
330
55D
102
}
330
55D
100
AcDbXrecord
280
     1
102
VTR_0.000_0.000_1.000_1.000_VISUALSTYLE
340
541
102
VTR_0.000_0.000_1.000_1.000_GRIDDISPLAY
 70
     3
102
VTR_0.000_0.000_1.000_1.000_GRIDMAJOR
 70
     5
102
VTR_0.000_0.000_1.000_1.000_DEFAULTLIGHTING
280
     1
102
VTR_0.000_0.000_1.000_1.000_DEFAULTLIGHTINGTYPE
 70
     1
102
VTR_0.000_0.000_1.000_1.000_BRIGHTNESS
141
0.0
102
VTR_0.000_0.000_1.000_1.000_CONTRAST
142
0.0
  0
XRECORD
  5
53
102
{ACAD_REACTORS
330
52
102
}
330
52
100
AcDbXrecord
280
     1
340
1F
  0
XRECORD
  5
51
102
{ACAD_REACTORS
330
50
102
}
330
50
100
AcDbXrecord
280
     1
340
1B
  0
LAYOUT
  5
53B
102
{ACAD_REACTORS
330
1A
102
}
330
1A
100
AcDbPlotSettings
  1

  2
none_device
  4

  6

 40
0.0
 41
0.0
 42
0.0
 43
0.0
 44
0.0
 45
0.0
 46
0.0
 47
0.0
 48
0.0
 49
0.0
140
0.0
141
0.0
142
1.0
143
1.0
 70
   688
 72
     1
 73
     0
 74
     5
  7

 75
    16
 76
     0
 77
     2
 78
   300
147
1.0
148
0.0
149
0.0
100
AcDbLayout
  1
Layout1
 70
     1
 71
     1
 10
0.0
 20
0.0
 11
12.0
 21
9.0
 12
0.0
 22
0.0
 32
0.0
 14
1.000000000000000E+20
 24
1.000000000000000E+20
 34
1.000000000000000E+20
 15
-1.000000000000000E+20
 25
-1.000000000000000E+20
 35
-1.000000000000000E+20
146
0.0
 13
0.0
 23
0.0
 33
0.0
 16
1.0
 26
0.0
 36
0.0
 17
0.0
 27
1.0
 37
0.0
 76
     0
330
1B
  0
LAYOUT
  5
53A
102
{ACAD_REACTORS
330
1A
102
}
330
1A
100
AcDbPlotSettings
  1

  2
none_device
  4
Letter_(8.50_x_11.00_Inches)
  6

 40
6.35
 41
6.35
 42
6.35000508
 43
6.35000508
 44
215.9
 45
279.4
 46
0.0
 47
0.0
 48
0.0
 49
0.0
140
0.0
141
0.0
142
1.0
143
2.080781980180664
 70
  1712
 72
     1
 73
     0
 74
     0
  7

 75
     0
 76
     0
 77
     2
 78
   300
147
0.4805885525369529
148
1.407443901169358
149
21.99750229613332
100
AcDbLayout
  1
Model
 70
     1
 71
     0
 10
0.0
 20
0.0
 11
12.0
 21
9.0
 12
0.0
 22
0.0
 32
0.0
 14
70.16401489310567
 24
112.369642808922
 34
0.0
 15
277.0834797641999
 25
227.1366601424358
 35
0.0
146
0.0
 13
0.0
 23
0.0
 33
0.0
 16
1.0
 26
0.0
 36
0.0
 17
0.0
 27
1.0
 37
0.0
 76
     0
330
1F
331
2E
  0
MATERIAL
  5
557
102
{ACAD_REACTORS
330
555
102
}
102
{ACAD_XDICTIONARY
360
594
102
}
330
555
100
AcDbMaterial
  1
ByBlock
  0
MATERIAL
  5
556
102
{ACAD_REACTORS
330
555
102
}
102
{ACAD_XDICTIONARY
360
592
102
}
330
555
100
AcDbMaterial
  1
ByLayer
  0
MATERIAL
  5
558
102
{ACAD_REACTORS
330
555
102
}
102
{ACAD_XDICTIONARY
360
596
102
}
330
555
100
AcDbMaterial
  1
Global
  0
MLEADERSTYLE
  5
55C
102
{ACAD_REACTORS
330
55B
102
}
102
{ACAD_XDICTIONARY
360
59C
102
}
330
55B
100
AcDbMLeaderStyle
170
     2
171
     1
172
     0
 90
        2
 40
0.0
 41
0.0
173
     1
 91
-1056964608
340
14
 92
       -2
290
     1
 42
2.0
291
     1
 43
8.0
  3
Standard
341
0
 44
4.0
300

342
11
174
     1
178
     6
175
     1
176
     0
 93
-1056964608
 45
4.0
292
     0
297
     0
 46
4.0
343
0
 94
-1056964608
 47
1.0
 49
1.0
140
1.0
293
     1
141
0.0
294
     1
177
     0
142
1.0
295
     0
296
     0
143
3.75
1001
ACAD_MLEADERVER
1070
     2
  0
MLINESTYLE
  5
18
102
{ACAD_REACTORS
330
17
102
}
330
17
100
AcDbMlineStyle
  2
STANDARD
 70
     0
  3

 62
   256
 51
90.0
 52
90.0
 71
     2
 49
0.5
 62
   256
  6
BYLAYER
 49
-0.5
 62
   256
  6
BYLAYER
  0
ACDBPLACEHOLDER
  5
F
102
{ACAD_REACTORS
330
E
102
}
330
E
  0
SCALE
  5
519
102
{ACAD_REACTORS
330
518
102
}
330
518
100
AcDbScale
 70
     0
300
1:1
140
1.0
141
1.0
290
     1
  0
SCALE
  5
51A
102
{ACAD_REACTORS
330
518
102
}
330
518
100
AcDbScale
 70
     0
300
1:2
140
1.0
141
2.0
290
     0
  0
SCALE
  5
51B
102
{ACAD_REACTORS
330
518
102
}
330
518
100
AcDbScale
 70
     0
300
1:4
140
1.0
141
4.0
290
     0
  0
SCALE
  5
51C
102
{ACAD_REACTORS
330
518
102
}
330
518
100
AcDbScale
 70
     0
300
1:5
140
1.0
141
5.0
290
     0
  0
SCALE
  5
51D
102
{ACAD_REACTORS
330
518
102
}
330
518
100
AcDbScale
 70
     0
300
1:8
140
1.0
141
8.0
290
     0
  0
SCALE
  5
51E
102
{ACAD_REACTORS
330
518
102
}
330
518
100
AcDbScale
 70
     0
300
1:10
140
1.0
141
10.0
290
     0
  0
SCALE
  5
51F
102
{ACAD_REACTORS
330
518
102
}
330
518
100
AcDbScale
 70
     0
300
1:16
140
1.0
141
16.0
290
     0
  0
SCALE
  5
520
102
{ACAD_REACTORS
330
518
102
}
330
518
100
AcDbScale
 70
     0
300
1:20
140
1.0
141
20.0
290
     0
  0
SCALE
  5
521
102
{ACAD_REACTORS
330
518
102
}
330
518
100
AcDbScale
 70
     0
300
1:30
140
1.0
141
30.0
290
     0
  0
SCALE
  5
522
102
{ACAD_REACTORS
330
518
102
}
330
518
100
AcDbScale
 70
     0
300
1:40
140
1.0
141
40.0
290
     0
  0
SCALE
  5
523
102
{ACAD_REACTORS
330
518
102
}
330
518
100
AcDbScale
 70
     0
300
1:50
140
1.0
141
50.0
290
     0
  0
SCALE
  5
524
102
{ACAD_REACTORS
330
518
102
}
330
518
100
AcDbScale
 70
     0
300
1:100
140
1.0
141
100.0
290
     0
  0
SCALE
  5
525
102
{ACAD_REACTORS
330
518
102
}
330
518
100
AcDbScale
 70
     0
300
2:1
140
2.0
141
1.0
290
     0
  0
SCALE
  5
526
102
{ACAD_REACTORS
330
518
102
}
330
518
100
AcDbScale
 70
     0
300
4:1
140
4.0
141
1.0
290
     0
  0
SCALE
  5
527
102
{ACAD_REACTORS
330
518
102
}
330
518
100
AcDbScale
 70
     0
300
8:1
140
8.0
141
1.0
290
     0
  0
SCALE
  5
528
102
{ACAD_REACTORS
330
518
102
}
330
518
100
AcDbScale
 70
     0
300
10:1
140
10.0
141
1.0
290
     0
  0
SCALE
  5
529
102
{ACAD_REACTORS
330
518
102
}
330
518
100
AcDbScale
 70
     0
300
100:1
140
100.0
141
1.0
290
     0
  0
SCALE
  5
52A
102
{ACAD_REACTORS
330
518
102
}
330
518
100
AcDbScale
 70
     0
300
1/128" = 1'-0"
140
0.0078125
141
12.0
290
     0
  0
SCALE
  5
52B
102
{ACAD_REACTORS
330
518
102
}
330
518
100
AcDbScale
 70
     0
300
1/64" = 1'-0"
140
0.015625
141
12.0
290
     0
  0
SCALE
  5
52C
102
{ACAD_REACTORS
330
518
102
}
330
518
100
AcDbScale
 70
     0
300
1/32" = 1'-0"
140
0.03125
141
12.0
290
     0
  0
SCALE
  5
52D
102
{ACAD_REACTORS
330
518
102
}
330
518
100
AcDbScale
 70
     0
300
1/16" = 1'-0"
140
0.0625
141
12.0
290
     0
  0
SCALE
  5
52E
102
{ACAD_REACTORS
330
518
102
}
330
518
100
AcDbScale
 70
     0
300
3/32" = 1'-0"
140
0.09375
141
12.0
290
     0
  0
SCALE
  5
52F
102
{ACAD_REACTORS
330
518
102
}
330
518
100
AcDbScale
 70
     0
300
1/8" = 1'-0"
140
0.125
141
12.0
290
     0
  0
SCALE
  5
530
102
{ACAD_REACTORS
330
518
102
}
330
518
100
AcDbScale
 70
     0
300
3/16" = 1'-0"
140
0.1875
141
12.0
290
     0
  0
SCALE
  5
531
102
{ACAD_REACTORS
330
518
102
}
330
518
100
AcDbScale
 70
     0
300
1/4" = 1'-0"
140
0.25
141
12.0
290
     0
  0
SCALE
  5
532
102
{ACAD_REACTORS
330
518
102
}
330
518
100
AcDbScale
 70
     0
300
3/8" = 1'-0"
140
0.375
141
12.0
290
     0
  0
SCALE
  5
533
102
{ACAD_REACTORS
330
518
102
}
330
518
100
AcDbScale
 70
     0
300
1/2" = 1'-0"
140
0.5
141
12.0
290
     0
  0
SCALE
  5
534
102
{ACAD_REACTORS
330
518
102
}
330
518
100
AcDbScale
 70
     0
300
3/4" = 1'-0"
140
0.75
141
12.0
290
     0
  0
SCALE
  5
535
102
{ACAD_REACTORS
330
518
102
}
330
518
100
AcDbScale
 70
     0
300
1" = 1'-0"
140
1.0
141
12.0
290
     0
  0
SCALE
  5
536
102
{ACAD_REACTORS
330
518
102
}
330
518
100
AcDbScale
 70
     0
300
1-1/2" = 1'-0"
140
1.5
141
12.0
290
     0
  0
SCALE
  5
537
102
{ACAD_REACTORS
330
518
102
}
330
518
100
AcDbScale
 70
     0
300
3" = 1'-0"
140
3.0
141
12.0
290
     0
  0
SCALE
  5
538
102
{ACAD_REACTORS
330
518
102
}
330
518
100
AcDbScale
 70
     0
300
6" = 1'-0"
140
6.0
141
12.0
290
     0
  0
SCALE
  5
539
102
{ACAD_REACTORS
330
518
102
}
330
518
100
AcDbScale
 70
     0
300
1'-0" = 1'-0"
140
12.0
141
12.0
290
     0
  0
TABLESTYLE
  5
55A
102
{ACAD_REACTORS
330
559
102
}
102
{ACAD_XDICTIONARY
360
598
102
}
330
559
100
AcDbTableStyle
  3
Standard
 70
     0
 71
     0
 40
0.06
 41
0.06
280
     0
281
     0
  7
STANDARD
140
4.5
170
     2
 62
     0
 63
   257
283
     0
274
    -2
284
     1
 64
     0
275
    -2
285
     1
 65
     0
276
    -2
286
     1
 66
     0
277
    -2
287
     1
 67
     0
278
    -2
288
     1
 68
     0
279
    -2
289
     1
 69
     0
  7
STANDARD
140
6.0
170
     5
 62
     0
 63
   257
283
     0
274
    -2
284
     1
 64
     0
275
    -2
285
     1
 65
     0
276
    -2
286
     1
 66
     0
277
    -2
287
     1
 67
     0
278
    -2
288
     1
 68
     0
279
    -2
289
     1
 69
     0
  7
STANDARD
140
4.5
170
     5
 62
     0
 63
   257
283
     0
274
    -2
284
     1
 64
     0
275
    -2
285
     1
 65
     0
276
    -2
286
     1
 66
     0
277
    -2
287
     1
 67
     0
278
    -2
288
     1
 68
     0
279
    -2
289
     1
 69
     0
  0
VISUALSTYLE
  5
541
102
{ACAD_REACTORS
330
53C
102
}
102
{ACAD_XDICTIONARY
360
56A
102
}
330
53C
100
AcDbVisualStyle
  2
2dWireframe
 70
     4
 71
     0
 72
     2
 73
     0
 90
        0
 40
0.6
 41
30.0
 62
     5
 63
     7
421
 16777215
 74
     1
 91
        4
 64
     7
 65
   257
 75
     1
175
     1
 42
1.0
 92
        0
 66
   257
 43
1.0
 76
     1
 77
     6
 78
     2
 67
     7
 79
     5
170
     0
171
     0
290
     0
174
     0
 93
        1
 44
0.0
173
     0
291
     0
 45
0.0
1001
ACAD
1000
AcDbSavedByObjectVersion
1070
     0
  0
VISUALSTYLE
  5
544
102
{ACAD_REACTORS
330
53C
102
}
102
{ACAD_XDICTIONARY
360
570
102
}
330
53C
100
AcDbVisualStyle
  2
Basic
 70
     7
 71
     1
 72
     0
 73
     1
 90
        0
 40
0.6
 41
30.0
 62
     5
 63
     7
421
 16777215
 74
     0
 91
        4
 64
     7
 65
   257
 75
     1
175
     1
 42
1.0
 92
        8
 66
     7
 43
1.0
 76
     1
 77
     6
 78
     2
 67
     7
 79
     5
170
     0
171
     0
290
     0
174
     0
 93
        1
 44
0.0
173
     0
291
     1
 45
0.0
1001
ACAD
1000
AcDbSavedByObjectVersion
1070
     0
  0
VISUALSTYLE
  5
548
102
{ACAD_REACTORS
330
53C
102
}
102
{ACAD_XDICTIONARY
360
578
102
}
330
53C
100
AcDbVisualStyle
  2
Brighten
 70
    12
 71
     2
 72
     2
 73
     0
 90
        0
 40
0.6
 41
30.0
 62
     5
 63
     7
421
 16777215
 74
     1
 91
        4
 64
     7
 65
   257
 75
     1
175
     1
 42
1.0
 92
        8
 66
     7
 43
1.0
 76
     1
 77
     6
 78
     2
 67
     7
 79
     5
170
     0
171
     0
290
     0
174
     0
 93
        1
 44
50.0
173
     0
291
     1
 45
0.0
1001
ACAD
1000
AcDbSavedByObjectVersion
1070
     0
  0
VISUALSTYLE
  5
54C
102
{ACAD_REACTORS
330
53C
102
}
102
{ACAD_XDICTIONARY
360
580
102
}
330
53C
100
AcDbVisualStyle
  2
ColorChange
 70
    16
 71
     2
 72
     2
 73
     3
 90
        0
 40
0.6
 41
30.0
 62
     5
 63
     8
421
  8421504
 74
     1
 91
        4
 64
     7
 65
   257
 75
     1
175
     1
 42
1.0
 92
        8
 66
     8
424
  8421504
 43
1.0
 76
     1
 77
     6
 78
     2
 67
     7
 79
     5
170
     0
171
     0
290
     0
174
     0
 93
        1
 44
0.0
173
     0
291
     1
 45
0.0
1001
ACAD
1000
AcDbSavedByObjectVersion
1070
     0
  0
VISUALSTYLE
  5
546
102
{ACAD_REACTORS
330
53C
102
}
102
{ACAD_XDICTIONARY
360
574
102
}
330
53C
100
AcDbVisualStyle
  2
Conceptual
 70
     9
 71
     3
 72
     2
 73
     0
 90
        0
 40
0.6
 41
30.0
 62
     5
 63
     7
421
 16777215
 74
     2
 91
        2
 64
     7
 65
   257
 75
     1
175
     1
 42
179.0
 92
        8
 66
     7
 43
1.0
 76
     1
 77
     6
 78
     2
 67
     7
 79
     3
170
     0
171
     0
290
     0
174
     0
 93
        1
 44
0.0
173
     0
291
     0
 45
0.0
1001
ACAD
1000
AcDbSavedByObjectVersion
1070
     0
  0
VISUALSTYLE
  5
547
102
{ACAD_REACTORS
330
53C
102
}
102
{ACAD_XDICTIONARY
360
576
102
}
330
53C
100
AcDbVisualStyle
  2
Dim
 70
    11
 71
     2
 72
     2
 73
     0
 90
        0
 40
0.6
 41
30.0
 62
     5
 63
     7
421
 16777215
 74
     1
 91
        4
 64
     7
 65
   257
 75
     1
175
     1
 42
1.0
 92
        8
 66
     7
 43
1.0
 76
     1
 77
     6
 78
     2
 67
     7
 79
     5
170
     0
171
     0
290
     0
174
     0
 93
        1
 44
-50.0
173
     0
291
     1
 45
0.0
1001
ACAD
1000
AcDbSavedByObjectVersion
1070
     0
  0
VISUALSTYLE
  5
54F
102
{ACAD_REACTORS
330
53C
102
}
102
{ACAD_XDICTIONARY
360
586
102
}
330
53C
100
AcDbVisualStyle
  2
EdgeColorOff
 70
    22
 71
     2
 72
     2
 73
     0
 90
        0
 40
0.6
 41
30.0
 62
     5
 63
     7
421
 16777215
 74
     1
 91
        4
 64
     7
 65
   257
 75
     1
175
     1
 42
1.0
 92
        8
 66
     7
 43
1.0
 76
     1
 77
     6
 78
     2
 67
     7
 79
     5
170
     0
171
     0
290
     0
174
     0
 93
        1
 44
0.0
173
     0
291
     1
 45
0.0
1001
ACAD
1000
AcDbSavedByObjectVersion
1070
     0
  0
VISUALSTYLE
  5
54B
102
{ACAD_REACTORS
330
53C
102
}
102
{ACAD_XDICTIONARY
360
57E
102
}
330
53C
100
AcDbVisualStyle
  2
Facepattern
 70
    15
 71
     2
 72
     2
 73
     0
 90
        0
 40
0.6
 41
30.0
 62
     5
 63
     7
421
 16777215
 74
     1
 91
        4
 64
     7
 65
   257
 75
     1
175
     1
 42
1.0
 92
        8
 66
     7
 43
1.0
 76
     1
 77
     6
 78
     2
 67
     7
 79
     5
170
     0
171
     0
290
     0
174
     0
 93
        1
 44
0.0
173
     0
291
     1
 45
0.0
1001
ACAD
1000
AcDbSavedByObjectVersion
1070
     0
  0
VISUALSTYLE
  5
53D
102
{ACAD_REACTORS
330
53C
102
}
102
{ACAD_XDICTIONARY
360
562
102
}
330
53C
100
AcDbVisualStyle
  2
Flat
 70
     0
 71
     2
 72
     1
 73
     1
 90
        2
 40
0.6
 41
30.0
 62
     5
 63
     7
421
 16777215
 74
     0
 91
        0
 64
     7
 65
   257
 75
     1
175
     1
 42
1.0
 92
        8
 66
     7
 43
1.0
 76
     1
 77
     6
 78
     2
 67
     7
 79
     5
170
     0
171
     0
290
     0
174
     0
 93
       13
 44
0.0
173
     0
291
     1
 45
0.0
1001
ACAD
1000
AcDbSavedByObjectVersion
1070
     0
  0
VISUALSTYLE
  5
53E
102
{ACAD_REACTORS
330
53C
102
}
102
{ACAD_XDICTIONARY
360
564
102
}
330
53C
100
AcDbVisualStyle
  2
FlatWithEdges
 70
     1
 71
     2
 72
     1
 73
     1
 90
        2
 40
0.6
 41
30.0
 62
     5
 63
     7
421
 16777215
 74
     1
 91
        0
 64
     7
 65
   257
 75
     1
175
     1
 42
1.0
 92
        0
 66
   257
 43
1.0
 76
     1
 77
     6
 78
     2
 67
     7
 79
     5
170
     0
171
     0
290
     0
174
     0
 93
       13
 44
0.0
173
     0
291
     1
 45
0.0
1001
ACAD
1000
AcDbSavedByObjectVersion
1070
     0
  0
VISUALSTYLE
  5
53F
102
{ACAD_REACTORS
330
53C
102
}
102
{ACAD_XDICTIONARY
360
566
102
}
330
53C
100
AcDbVisualStyle
  2
Gouraud
 70
     2
 71
     2
 72
     2
 73
     1
 90
        2
 40
0.6
 41
30.0
 62
     5
 63
     7
421
 16777215
 74
     0
 91
        0
 64
     7
 65
   257
 75
     1
175
     1
 42
1.0
 92
        0
 66
     7
 43
1.0
 76
     1
 77
     6
 78
     2
 67
     7
 79
     5
170
     0
171
     0
290
     0
174
     0
 93
       13
 44
0.0
173
     0
291
     1
 45
0.0
1001
ACAD
1000
AcDbSavedByObjectVersion
1070
     0
  0
VISUALSTYLE
  5
540
102
{ACAD_REACTORS
330
53C
102
}
102
{ACAD_XDICTIONARY
360
568
102
}
330
53C
100
AcDbVisualStyle
  2
GouraudWithEdges
 70
     3
 71
     2
 72
     2
 73
     1
 90
        2
 40
0.6
 41
30.0
 62
     5
 63
     7
421
 16777215
 74
     1
 91
        0
 64
     7
 65
   257
 75
     1
175
     1
 42
1.0
 92
        0
 66
   257
 43
1.0
 76
     1
 77
     6
 78
     2
 67
     7
 79
     5
170
     0
171
     0
290
     0
174
     0
 93
       13
 44
0.0
173
     0
291
     1
 45
0.0
1001
ACAD
1000
AcDbSavedByObjectVersion
1070
     0
  0
VISUALSTYLE
  5
543
102
{ACAD_REACTORS
330
53C
102
}
102
{ACAD_XDICTIONARY
360
56E
102
}
330
53C
100
AcDbVisualStyle
  2
Hidden
 70
     6
 71
     1
 72
     2
 73
     2
 90
        0
 40
0.6
 41
30.0
 62
     5
 63
     7
421
 16777215
 74
     2
 91
        2
 64
     7
 65
   257
 75
     2
175
     1
 42
40.0
 92
        0
 66
   257
 43
1.0
 76
     1
 77
     6
 78
     2
 67
     7
 79
     3
170
     0
171
     0
290
     0
174
     0
 93
        1
 44
0.0
173
     0
291
     0
 45
0.0
1001
ACAD
1000
AcDbSavedByObjectVersion
1070
     0
  0
VISUALSTYLE
  5
54D
102
{ACAD_REACTORS
330
53C
102
}
102
{ACAD_XDICTIONARY
360
582
102
}
330
53C
100
AcDbVisualStyle
  2
JitterOff
 70
    20
 71
     2
 72
     2
 73
     0
 90
        0
 40
0.6
 41
30.0
 62
     5
 63
     7
421
 16777215
 74
     1
 91
        4
 64
     7
 65
   257
 75
     1
175
     1
 42
1.0
 92
       10
 66
     7
 43
1.0
 76
     1
 77
     6
 78
     2
 67
     7
 79
     5
170
     0
171
     0
290
     0
174
     0
 93
        1
 44
0.0
173
     0
291
     1
 45
0.0
1001
ACAD
1000
AcDbSavedByObjectVersion
1070
     0
  0
VISUALSTYLE
  5
54A
102
{ACAD_REACTORS
330
53C
102
}
102
{ACAD_XDICTIONARY
360
57C
102
}
330
53C
100
AcDbVisualStyle
  2
Linepattern
 70
    14
 71
     2
 72
     2
 73
     0
 90
        0
 40
0.6
 41
30.0
 62
     5
 63
     7
421
 16777215
 74
     1
 91
        4
 64
     7
 65
   257
 75
     7
175
     7
 42
1.0
 92
        8
 66
     7
 43
1.0
 76
     1
 77
     6
 78
     2
 67
     7
 79
     5
170
     0
171
     0
290
     0
174
     0
 93
        1
 44
0.0
173
     0
291
     1
 45
0.0
1001
ACAD
1000
AcDbSavedByObjectVersion
1070
     0
  0
VISUALSTYLE
  5
54E
102
{ACAD_REACTORS
330
53C
102
}
102
{ACAD_XDICTIONARY
360
584
102
}
330
53C
100
AcDbVisualStyle
  2
OverhangOff
 70
    21
 71
     2
 72
     2
 73
     0
 90
        0
 40
0.6
 41
30.0
 62
     5
 63
     7
421
 16777215
 74
     1
 91
        4
 64
     7
 65
   257
 75
     1
175
     1
 42
1.0
 92
        9
 66
     7
 43
1.0
 76
     1
 77
     6
 78
     2
 67
     7
 79
     5
170
     0
171
     0
290
     0
174
     0
 93
        1
 44
0.0
173
     0
291
     1
 45
0.0
1001
ACAD
1000
AcDbSavedByObjectVersion
1070
     0
  0
VISUALSTYLE
  5
545
102
{ACAD_REACTORS
330
53C
102
}
102
{ACAD_XDICTIONARY
360
572
102
}
330
53C
100
AcDbVisualStyle
  2
Realistic
 70
     8
 71
     2
 72
     3
 73
     0
 90
        2
 40
0.6
 41
30.0
 62
     5
 63
     7
421
 16777215
 74
     0
 91
        0
 64
     7
 65
   257
 75
     1
175
     1
 42
1.0
 92
        8
 66
   257
 43
1.0
 76
     1
 77
     6
 78
     2
 67
     7
 79
     3
170
     0
171
     0
290
     0
174
     0
 93
       13
 44
0.0
173
     0
291
     0
 45
0.0
1001
ACAD
1000
AcDbSavedByObjectVersion
1070
     0
  0
VISUALSTYLE
  5
554
102
{ACAD_REACTORS
330
53C
102
}
102
{ACAD_XDICTIONARY
360
590
102
}
330
53C
100
AcDbVisualStyle
  2
Shaded
 70
    27
 71
     2
 72
     2
 73
     1
 90
        2
 40
0.6
 41
30.0
 62
     5
 63
     7
421
 16777215
 74
     0
 91
        4
 64
     7
 65
   257
 75
     1
175
     1
 42
1.0
 92
        8
 66
   257
 43
1.0
 76
     1
 77
     6
 78
     2
 67
     8
425
  7895160
 79
     3
170
     0
171
     0
290
     0
174
     0
 93
        5
 44
0.0
173
     0
291
     0
 45
0.0
1001
ACAD
1000
AcDbSavedByObjectVersion
1070
     0
  0
VISUALSTYLE
  5
553
102
{ACAD_REACTORS
330
53C
102
}
102
{ACAD_XDICTIONARY
360
58E
102
}
330
53C
100
AcDbVisualStyle
  2
Shaded with edges
 70
    26
 71
     2
 72
     2
 73
     1
 90
        2
 40
0.6
 41
30.0
 62
     5
 63
     7
421
 16777215
 74
     1
 91
       10
 64
     7
 65
   257
 75
     2
175
     1
 42
1.0
 92
        8
 66
   257
 43
1.0
 76
     1
 77
     6
 78
     2
 67
     7
 79
     3
170
     0
171
     0
290
     0
174
     0
 93
        5
 44
0.0
173
     0
291
     0
 45
0.0
1001
ACAD
1000
AcDbSavedByObjectVersion
1070
     0
  0
VISUALSTYLE
  5
550
102
{ACAD_REACTORS
330
53C
102
}
102
{ACAD_XDICTIONARY
360
588
102
}
330
53C
100
AcDbVisualStyle
  2
Shades of Gray
 70
    23
 71
     2
 72
     2
 73
     3
 90
        0
 40
0.6
 41
30.0
 62
     5
 63
     7
421
 16777215
 74
     2
 91
        2
 64
     7
 65
     7
 75
     1
175
     1
 42
40.0
 92
        8
 66
     7
 43
1.0
 76
     1
 77
     6
 78
     2
 67
     7
 79
     3
170
     0
171
     0
290
     0
174
     0
 93
        1
 44
0.0
173
     0
291
     0
 45
0.0
1001
ACAD
1000
AcDbSavedByObjectVersion
1070
     0
  0
VISUALSTYLE
  5
551
102
{ACAD_REACTORS
330
53C
102
}
102
{ACAD_XDICTIONARY
360
58A
102
}
330
53C
100
AcDbVisualStyle
  2
Sketchy
 70
    24
 71
     1
 72
     2
 73
     2
 90
        0
 40
0.6
 41
30.0
 62
     5
 63
     7
421
 16777215
 74
     2
 91
        2
 64
     7
 65
     7
 75
     1
175
     1
 42
40.0
 92
       11
 66
     7
 43
1.0
 76
     1
 77
     6
 78
     2
 67
     7
 79
     6
170
     0
171
     0
290
     0
174
     0
 93
        1
 44
0.0
173
     0
291
     0
 45
0.0
1001
ACAD
1000
AcDbSavedByObjectVersion
1070
     0
  0
VISUALSTYLE
  5
549
102
{ACAD_REACTORS
330
53C
102
}
102
{ACAD_XDICTIONARY
360
57A
102
}
330
53C
100
AcDbVisualStyle
  2
Thicken
 70
    13
 71
     2
 72
     2
 73
     0
 90
        0
 40
0.6
 41
30.0
 62
     5
 63
     7
421
 16777215
 74
     1
 91
        4
 64
     7
 65
   257
 75
     1
175
     1
 42
1.0
 92
       12
 66
     7
 43
1.0
 76
     1
 77
     6
 78
     2
 67
     7
 79
     5
170
     0
171
     0
290
     0
174
     0
 93
        1
 44
0.0
173
     0
291
     1
 45
0.0
1001
ACAD
1000
AcDbSavedByObjectVersion
1070
     0
  0
VISUALSTYLE
  5
542
102
{ACAD_REACTORS
330
53C
102
}
102
{ACAD_XDICTIONARY
360
56C
102
}
330
53C
100
AcDbVisualStyle
  2
Wireframe
 70
     5
 71
     0
 72
     2
 73
     0
 90
        0
 40
0.6
 41
30.0
 62
     5
 63
     7
421
 16777215
 74
     1
 91
        4
 64
     7
 65
   257
 75
     1
175
     1
 42
1.0
 92
        0
 66
   257
 43
1.0
 76
     1
 77
     6
 78
     2
 67
     7
 79
     3
170
     0
171
     0
290
     0
174
     0
 93
        1
 44
0.0
173
     0
291
     0
 45
0.0
1001
ACAD
1000
AcDbSavedByObjectVersion
1070
     0
  0
VISUALSTYLE
  5
552
102
{ACAD_REACTORS
330
53C
102
}
102
{ACAD_XDICTIONARY
360
58C
102
}
330
53C
100
AcDbVisualStyle
  2
X-Ray
 70
    25
 71
     2
 72
     2
 73
     1
 90
        1
 40
0.5
 41
30.0
 62
     5
 63
     7
421
 16777215
 74
     1
 91
        0
 64
     7
 65
   257
 75
     1
175
     1
 42
1.0
 92
        8
 66
     7
 43
1.0
 76
     1
 77
     6
 78
     2
 67
     7
 79
     3
170
     0
171
     0
290
     0
174
     0
 93
       13
 44
0.0
173
     0
291
     0
 45
0.0
1001
ACAD
1000
AcDbSavedByObjectVersion
1070
     0
  0
DICTIONARYVAR
  5
560
102
{ACAD_REACTORS
330
55F
102
}
330
55F
100
DictionaryVariables
280
     0
  1
1:1
  0
DICTIONARYVAR
  5
5A0
102
{ACAD_REACTORS
330
55F
102
}
330
55F
100
DictionaryVariables
280
     0
  1
Standard
  0
DICTIONARYVAR
  5
59F
102
{ACAD_REACTORS
330
55F
102
}
330
55F
100
DictionaryVariables
280
     0
  1
Standard
  0
DICTIONARYVAR
  5
5A1
102
{ACAD_REACTORS
330
55F
102
}
330
55F
100
DictionaryVariables
280
     0
  1
0
  0
DICTIONARYVAR
  5
561
102
{ACAD_REACTORS
330
55F
102
}
330
55F
100
DictionaryVariables
280
     0
  1
2
  0
DICTIONARY
  5
594
330
557
100
AcDbDictionary
280
     1
281
     1
  3
ACAD_XREC_ROUNDTRIP
360
595
  0
DICTIONARY
  5
592
330
556
100
AcDbDictionary
280
     1
281
     1
  3
ACAD_XREC_ROUNDTRIP
360
593
  0
DICTIONARY
  5
596
330
558
100
AcDbDictionary
280
     1
281
     1
  3
ACAD_XREC_ROUNDTRIP
360
597
  0
DICTIONARY
  5
59C
330
55C
100
AcDbDictionary
280
     1
281
     1
  3
ACAD_XREC_ROUNDTRIP
360
59D
  0
DICTIONARY
  5
598
330
55A
100
AcDbDictionary
280
     1
281
     1
  3
ACAD_ROUNDTRIP_2008_TABLESTYLE_CELLSTYLEMAP
360
59A
  3
ACAD_XREC_ROUNDTRIP
360
599
  0
DICTIONARY
  5
56A
330
541
100
AcDbDictionary
280
     1
281
     1
  3
ACAD_XREC_ROUNDTRIP
360
56B
  0
DICTIONARY
  5
570
330
544
100
AcDbDictionary
280
     1
281
     1
  3
ACAD_XREC_ROUNDTRIP
360
571
  0
DICTIONARY
  5
578
330
548
100
AcDbDictionary
280
     1
281
     1
  3
ACAD_XREC_ROUNDTRIP
360
579
  0
DICTIONARY
  5
580
330
54C
100
AcDbDictionary
280
     1
281
     1
  3
ACAD_XREC_ROUNDTRIP
360
581
  0
DICTIONARY
  5
574
330
546
100
AcDbDictionary
280
     1
281
     1
  3
ACAD_XREC_ROUNDTRIP
360
575
  0
DICTIONARY
  5
576
330
547
100
AcDbDictionary
280
     1
281
     1
  3
ACAD_XREC_ROUNDTRIP
360
577
  0
DICTIONARY
  5
586
330
54F
100
AcDbDictionary
280
     1
281
     1
  3
ACAD_XREC_ROUNDTRIP
360
587
  0
DICTIONARY
  5
57E
330
54B
100
AcDbDictionary
280
     1
281
     1
  3
ACAD_XREC_ROUNDTRIP
360
57F
  0
DICTIONARY
  5
562
330
53D
100
AcDbDictionary
280
     1
281
     1
  3
ACAD_XREC_ROUNDTRIP
360
563
  0
DICTIONARY
  5
564
330
53E
100
AcDbDictionary
280
     1
281
     1
  3
ACAD_XREC_ROUNDTRIP
360
565
  0
DICTIONARY
  5
566
330
53F
100
AcDbDictionary
280
     1
281
     1
  3
ACAD_XREC_ROUNDTRIP
360
567
  0
DICTIONARY
  5
568
330
540
100
AcDbDictionary
280
     1
281
     1
  3
ACAD_XREC_ROUNDTRIP
360
569
  0
DICTIONARY
  5
56E
330
543
100
AcDbDictionary
280
     1
281
     1
  3
ACAD_XREC_ROUNDTRIP
360
56F
  0
DICTIONARY
  5
582
330
54D
100
AcDbDictionary
280
     1
281
     1
  3
ACAD_XREC_ROUNDTRIP
360
583
  0
DICTIONARY
  5
57C
330
54A
100
AcDbDictionary
280
     1
281
     1
  3
ACAD_XREC_ROUNDTRIP
360
57D
  0
DICTIONARY
  5
584
330
54E
100
AcDbDictionary
280
     1
281
     1
  3
ACAD_XREC_ROUNDTRIP
360
585
  0
DICTIONARY
  5
572
330
545
100
AcDbDictionary
280
     1
281
     1
  3
ACAD_XREC_ROUNDTRIP
360
573
  0
DICTIONARY
  5
590
330
554
100
AcDbDictionary
280
     1
281
     1
  3
ACAD_XREC_ROUNDTRIP
360
591
  0
DICTIONARY
  5
58E
330
553
100
AcDbDictionary
280
     1
281
     1
  3
ACAD_XREC_ROUNDTRIP
360
58F
  0
DICTIONARY
  5
588
330
550
100
AcDbDictionary
280
     1
281
     1
  3
ACAD_XREC_ROUNDTRIP
360
589
  0
DICTIONARY
  5
58A
330
551
100
AcDbDictionary
280
     1
281
     1
  3
ACAD_XREC_ROUNDTRIP
360
58B
  0
DICTIONARY
  5
57A
330
549
100
AcDbDictionary
280
     1
281
     1
  3
ACAD_XREC_ROUNDTRIP
360
57B
  0
DICTIONARY
  5
56C
330
542
100
AcDbDictionary
280
     1
281
     1
  3
ACAD_XREC_ROUNDTRIP
360
56D
  0
DICTIONARY
  5
58C
330
552
100
AcDbDictionary
280
     1
281
     1
  3
ACAD_XREC_ROUNDTRIP
360
58D
  0
XRECORD
  5
595
102
{ACAD_REACTORS
330
594
102
}
330
594
100
AcDbXrecord
280
     1
102
MATERIAL
148
0.0
149
0.0
149
0.0
 93
        0
 94
      127
282
     0
 72
     1
 77
     1
171
     1
175
     1
179
     1
273
     0
  0
XRECORD
  5
593
102
{ACAD_REACTORS
330
592
102
}
330
592
100
AcDbXrecord
280
     1
102
MATERIAL
148
0.0
149
0.0
149
0.0
 93
        0
 94
      127
282
     0
 72
     1
 77
     1
171
     1
175
     1
179
     1
273
     0
  0
XRECORD
  5
597
102
{ACAD_REACTORS
330
596
102
}
330
596
100
AcDbXrecord
280
     1
102
MATERIAL
148
0.0
149
0.0
149
0.0
 93
        0
 94
      127
282
     0
 72
     1
 77
     1
171
     1
175
     1
179
     1
273
     0
  0
XRECORD
  5
59D
102
{ACAD_REACTORS
330
59C
102
}
330
59C
100
AcDbXrecord
280
     1
102
ACAD_ROUNDTRIP_2010_MLEADER_STYLE
  0
CELLSTYLEMAP
  5
59A
102
{ACAD_REACTORS
330
598
102
}
330
598
100
AcDbCellStyleMap
 90
        3
300
CELLSTYLE
  1
TABLEFORMAT_BEGIN
 90
        5
170
     1
 91
        0
 92
    32768
 62
   257
 93
        1
300
CONTENTFORMAT
  1
CONTENTFORMAT_BEGIN
 90
        0
 91
        0
 92
        4
 93
        0
300

 40
0.0
140
1.0
 94
        5
 62
     0
340
11
144
6.0
309
CONTENTFORMAT_END
171
     1
301
MARGIN
  1
CELLMARGIN_BEGIN
 40
1.5
 40
1.5
 40
1.5
 40
1.5
 40
1.5
 40
1.5
309
CELLMARGIN_END
 94
        6
 95
        1
302
GRIDFORMAT
  1
GRIDFORMAT_BEGIN
 90
        0
 91
        1
 62
     0
 92
       -2
340
14
 93
        0
 40
0.045
309
GRIDFORMAT_END
 95
        2
302
GRIDFORMAT
  1
GRIDFORMAT_BEGIN
 90
        0
 91
        1
 62
     0
 92
       -2
340
14
 93
        0
 40
0.045
309
GRIDFORMAT_END
 95
        4
302
GRIDFORMAT
  1
GRIDFORMAT_BEGIN
 90
        0
 91
        1
 62
     0
 92
       -2
340
14
 93
        0
 40
0.045
309
GRIDFORMAT_END
 95
        8
302
GRIDFORMAT
  1
GRIDFORMAT_BEGIN
 90
        0
 91
        1
 62
     0
 92
       -2
340
14
 93
        0
 40
0.045
309
GRIDFORMAT_END
 95
       16
302
GRIDFORMAT
  1
GRIDFORMAT_BEGIN
 90
        0
 91
        1
 62
     0
 92
       -2
340
14
 93
        0
 40
0.045
309
GRIDFORMAT_END
 95
       32
302
GRIDFORMAT
  1
GRIDFORMAT_BEGIN
 90
        0
 91
        1
 62
     0
 92
       -2
340
14
 93
        0
 40
0.045
309
GRIDFORMAT_END
309
TABLEFORMAT_END
  1
CELLSTYLE_BEGIN
 90
        1
 91
        1
300
_TITLE
309
CELLSTYLE_END
300
CELLSTYLE
  1
TABLEFORMAT_BEGIN
 90
        5
170
     1
 91
        0
 92
        0
 62
   257
 93
        1
300
CONTENTFORMAT
  1
CONTENTFORMAT_BEGIN
 90
        0
 91
        0
 92
        4
 93
        0
300

 40
0.0
140
1.0
 94
        5
 62
     0
340
11
144
4.5
309
CONTENTFORMAT_END
171
     1
301
MARGIN
  1
CELLMARGIN_BEGIN
 40
1.5
 40
1.5
 40
1.5
 40
1.5
 40
1.5
 40
1.5
309
CELLMARGIN_END
 94
        6
 95
        1
302
GRIDFORMAT
  1
GRIDFORMAT_BEGIN
 90
        0
 91
        1
 62
     0
 92
       -2
340
14
 93
        0
 40
0.045
309
GRIDFORMAT_END
 95
        2
302
GRIDFORMAT
  1
GRIDFORMAT_BEGIN
 90
        0
 91
        1
 62
     0
 92
       -2
340
14
 93
        0
 40
0.045
309
GRIDFORMAT_END
 95
        4
302
GRIDFORMAT
  1
GRIDFORMAT_BEGIN
 90
        0
 91
        1
 62
     0
 92
       -2
340
14
 93
        0
 40
0.045
309
GRIDFORMAT_END
 95
        8
302
GRIDFORMAT
  1
GRIDFORMAT_BEGIN
 90
        0
 91
        1
 62
     0
 92
       -2
340
14
 93
        0
 40
0.045
309
GRIDFORMAT_END
 95
       16
302
GRIDFORMAT
  1
GRIDFORMAT_BEGIN
 90
        0
 91
        1
 62
     0
 92
       -2
340
14
 93
        0
 40
0.045
309
GRIDFORMAT_END
 95
       32
302
GRIDFORMAT
  1
GRIDFORMAT_BEGIN
 90
        0
 91
        1
 62
     0
 92
       -2
340
14
 93
        0
 40
0.045
309
GRIDFORMAT_END
309
TABLEFORMAT_END
  1
CELLSTYLE_BEGIN
 90
        2
 91
        1
300
_HEADER
309
CELLSTYLE_END
300
CELLSTYLE
  1
TABLEFORMAT_BEGIN
 90
        5
170
     1
 91
        0
 92
        0
 62
   257
 93
        1
300
CONTENTFORMAT
  1
CONTENTFORMAT_BEGIN
 90
        0
 91
        0
 92
        4
 93
        0
300

 40
0.0
140
1.0
 94
        2
 62
     0
340
11
144
4.5
309
CONTENTFORMAT_END
171
     1
301
MARGIN
  1
CELLMARGIN_BEGIN
 40
1.5
 40
1.5
 40
1.5
 40
1.5
 40
1.5
 40
1.5
309
CELLMARGIN_END
 94
        6
 95
        1
302
GRIDFORMAT
  1
GRIDFORMAT_BEGIN
 90
        0
 91
        1
 62
     0
 92
       -2
340
14
 93
        0
 40
0.045
309
GRIDFORMAT_END
 95
        2
302
GRIDFORMAT
  1
GRIDFORMAT_BEGIN
 90
        0
 91
        1
 62
     0
 92
       -2
340
14
 93
        0
 40
0.045
309
GRIDFORMAT_END
 95
        4
302
GRIDFORMAT
  1
GRIDFORMAT_BEGIN
 90
        0
 91
        1
 62
     0
 92
       -2
340
14
 93
        0
 40
0.045
309
GRIDFORMAT_END
 95
        8
302
GRIDFORMAT
  1
GRIDFORMAT_BEGIN
 90
        0
 91
        1
 62
     0
 92
       -2
340
14
 93
        0
 40
0.045
309
GRIDFORMAT_END
 95
       16
302
GRIDFORMAT
  1
GRIDFORMAT_BEGIN
 90
        0
 91
        1
 62
     0
 92
       -2
340
14
 93
        0
 40
0.045
309
GRIDFORMAT_END
 95
       32
302
GRIDFORMAT
  1
GRIDFORMAT_BEGIN
 90
        0
 91
        1
 62
     0
 92
       -2
340
14
 93
        0
 40
0.045
309
GRIDFORMAT_END
309
TABLEFORMAT_END
  1
CELLSTYLE_BEGIN
 90
        3
 91
        2
300
_DATA
309
CELLSTYLE_END
  0
XRECORD
  5
599
102
{ACAD_REACTORS
330
598
102
}
330
598
100
AcDbXrecord
280
     1
102
ACAD_ROUNDTRIP_PRE2007_TABLESTYLE
 90
        4
 91
        0
  1

 92
        4
 93
        0
  2

 94
        4
 95
        0
  3

  0
XRECORD
  5
56B
102
{ACAD_REACTORS
330
56A
102
}
330
56A
100
AcDbXrecord
280
     1
102
RTVSPropertyOp0
 70
     1
102
RTVSPropertyOp1
 70
     1
102
RTVSPropertyOp2
 70
     1
102
RTVSPropertyOp3
 70
     1
102
RTVSPropertyOp4
 70
     1
102
RTVSPropertyOp5
 70
     1
102
RTVSPropertyOp6
 70
     1
102
RTVSPropertyOp7
 70
     1
102
RTVSPropertyOp8
 70
     1
102
RTVSPropertyOp9
 70
     1
102
RTVSPropertyOp10
 70
     1
102
RTVSPropertyOp11
 70
     1
102
RTVSPropertyOp12
 70
     1
102
RTVSPropertyOp13
 70
     1
102
RTVSPropertyOp14
 70
     1
102
RTVSPropertyOp15
 70
     1
102
RTVSPropertyOp16
 70
     1
102
RTVSPropertyOp17
 70
     1
102
RTVSPropertyOp18
 70
     1
102
RTVSPropertyOp19
 70
     1
102
RTVSPropertyOp20
 70
     1
102
RTVSPropertyOp21
 70
     1
102
RTVSPropertyOp22
 70
     1
102
RTVSPropertyOp23
 70
     1
102
RTVSPropertyOp24
 70
     1
102
RTVSPropertyOp25
 70
     1
102
RTVSPropertyOp26
 70
     1
102
RTVSPropertyOp27
 70
     1
102
RTVSPropertyOp28
 70
     1
102
RTVSPropertyOp29
 70
     1
102
RTVSPropertyOp30
 70
     1
102
RTVSPropertyOp31
 70
     1
102
RTVSPropertyOp32
 70
     1
102
RTVSPropertyOp33
 70
     1
102
RTVSPropertyOp34
 70
     1
102
RTVSPropertyOp35
 70
     1
102
RTVSPropertyOp36
 70
     1
102
RTVSPropertyOp37
 70
     1
102
RTVSPropertyOp38
 70
     1
102
RTVSPropertyOp39
 70
     1
102
RTVSPropertyOp40
 70
     1
102
RTVSPropertyOp41
 70
     1
102
RTVSPropertyOp42
 70
     1
102
RTVSPropertyOp43
 70
     1
102
RTVSPropertyOp44
 70
     1
102
RTVSPropertyOp45
 70
     1
102
RTVSPropertyOp46
 70
     1
102
RTVSPropertyOp47
 70
     1
102
RTVSPropertyOp48
 70
     1
102
RTVSPropertyOp49
 70
     1
102
RTVSPropertyOp50
 70
     1
102
RTVSPropertyOp51
 70
     0
102
RTVSPropertyOp52
 70
     0
102
RTVSPropertyOp53
 70
     1
102
RTVSPropertyOp54
 70
     1
102
RTVSPropertyOp55
 70
     1
102
RTVSPropertyOp56
 70
     1
102
RTVSPropertyOp57
 70
     1
102
RTVSPost2010Prop28
280
     1
102
RTVSPost2010PropOp28
 70
     1
102
RTVSPost2010Prop29
280
     1
102
RTVSPost2010PropOp29
 70
     1
102
RTVSPost2010Prop30
280
     0
102
RTVSPost2010PropOp30
 70
     1
102
RTVSPost2010Prop31
280
     0
102
RTVSPost2010PropOp31
 70
     1
102
RTVSPost2010Prop32
280
     0
102
RTVSPost2010PropOp32
 70
     1
102
RTVSPost2010Prop33
280
     0
102
RTVSPost2010PropOp33
 70
     1
102
RTVSPost2010Prop34
280
     0
102
RTVSPost2010PropOp34
 70
     1
102
RTVSPost2010Prop35
280
     0
102
RTVSPost2010PropOp35
 70
     1
102
RTVSPost2010Prop36
280
     0
102
RTVSPost2010PropOp36
 70
     1
102
RTVSPost2010Prop37
 90
       50
102
RTVSPost2010PropOp37
 70
     1
102
RTVSPost2010Prop38
140
0.0
102
RTVSPost2010PropOp38
 70
     1
102
RTVSPost2010Prop39
140
1.0
102
RTVSPost2010PropOp39
 70
     1
102
RTVSPost2010Prop40
 90
        0
102
RTVSPost2010PropOp40
 70
     1
102
RTVSPost2010Prop41ColorIndex
 90
       18
102
RTVSPost2010Prop41ColorRGB
 90
        0
102
RTVSPost2010PropOp41
 70
     1
102
RTVSPost2010Prop42
 90
       50
102
RTVSPost2010PropOp42
 70
     1
102
RTVSPost2010Prop43
 90
        3
102
RTVSPost2010PropOp43
 70
     1
102
RTVSPost2010Prop44ColorIndex
 90
        5
102
RTVSPost2010Prop44ColorRGB
 90
      255
102
RTVSPost2010PropOp44
 70
     1
102
RTVSPost2010Prop45
280
     0
102
RTVSPost2010PropOp45
 70
     1
102
RTVSPost2010Prop46
 90
       50
102
RTVSPost2010PropOp46
 70
     1
102
RTVSPost2010Prop47
 90
       50
102
RTVSPost2010PropOp47
 70
     1
102
RTVSPost2010Prop48
 90
       50
102
RTVSPost2010PropOp48
 70
     1
102
RTVSPost2010Prop49
280
     0
102
RTVSPost2010PropOp49
 70
     1
102
RTVSPost2010Prop50
 90
       50
102
RTVSPost2010PropOp50
 70
     1
102
RTVSPost2010Prop51ColorIndex
 90
      256
102
RTVSPost2010Prop51ColorRGB
 90
-16777216
102
RTVSPost2010PropOp51
 70
     0
102
RTVSPost2010Prop52
140
1.0
102
RTVSPost2010PropOp52
 70
     0
102
RTVSPost2010Prop53
 90
        2
102
RTVSPost2010PropOp53
 70
     1
102
RTVSPost2010Prop54
  1
strokes_ogs.tif
102
RTVSPost2010PropOp54
 70
     1
102
RTVSPost2010Prop55
280
     0
102
RTVSPost2010PropOp55
 70
     1
102
RTVSPost2010Prop56
140
1.0
102
RTVSPost2010PropOp56
 70
     1
102
RTVSPost2010Prop57
140
1.0
102
RTVSPost2010PropOp57
 70
     1
  0
XRECORD
  5
571
102
{ACAD_REACTORS
330
570
102
}
330
570
100
AcDbXrecord
280
     1
102
RTVSPropertyOp0
 70
     1
102
RTVSPropertyOp1
 70
     1
102
RTVSPropertyOp2
 70
     1
102
RTVSPropertyOp3
 70
     1
102
RTVSPropertyOp4
 70
     1
102
RTVSPropertyOp5
 70
     1
102
RTVSPropertyOp6
 70
     1
102
RTVSPropertyOp7
 70
     1
102
RTVSPropertyOp8
 70
     1
102
RTVSPropertyOp9
 70
     1
102
RTVSPropertyOp10
 70
     1
102
RTVSPropertyOp11
 70
     1
102
RTVSPropertyOp12
 70
     1
102
RTVSPropertyOp13
 70
     1
102
RTVSPropertyOp14
 70
     1
102
RTVSPropertyOp15
 70
     1
102
RTVSPropertyOp16
 70
     1
102
RTVSPropertyOp17
 70
     1
102
RTVSPropertyOp18
 70
     1
102
RTVSPropertyOp19
 70
     1
102
RTVSPropertyOp20
 70
     1
102
RTVSPropertyOp21
 70
     1
102
RTVSPropertyOp22
 70
     1
102
RTVSPropertyOp23
 70
     1
102
RTVSPropertyOp24
 70
     1
102
RTVSPropertyOp25
 70
     1
102
RTVSPropertyOp26
 70
     1
102
RTVSPropertyOp27
 70
     1
102
RTVSPropertyOp28
 70
     1
102
RTVSPropertyOp29
 70
     1
102
RTVSPropertyOp30
 70
     1
102
RTVSPropertyOp31
 70
     1
102
RTVSPropertyOp32
 70
     1
102
RTVSPropertyOp33
 70
     1
102
RTVSPropertyOp34
 70
     1
102
RTVSPropertyOp35
 70
     1
102
RTVSPropertyOp36
 70
     1
102
RTVSPropertyOp37
 70
     1
102
RTVSPropertyOp38
 70
     1
102
RTVSPropertyOp39
 70
     1
102
RTVSPropertyOp40
 70
     1
102
RTVSPropertyOp41
 70
     1
102
RTVSPropertyOp42
 70
     1
102
RTVSPropertyOp43
 70
     1
102
RTVSPropertyOp44
 70
     1
102
RTVSPropertyOp45
 70
     1
102
RTVSPropertyOp46
 70
     1
102
RTVSPropertyOp47
 70
     1
102
RTVSPropertyOp48
 70
     1
102
RTVSPropertyOp49
 70
     1
102
RTVSPropertyOp50
 70
     1
102
RTVSPropertyOp51
 70
     0
102
RTVSPropertyOp52
 70
     0
102
RTVSPropertyOp53
 70
     1
102
RTVSPropertyOp54
 70
     1
102
RTVSPropertyOp55
 70
     1
102
RTVSPropertyOp56
 70
     1
102
RTVSPropertyOp57
 70
     1
102
RTVSPost2010Prop28
280
     0
102
RTVSPost2010PropOp28
 70
     1
102
RTVSPost2010Prop29
280
     1
102
RTVSPost2010PropOp29
 70
     1
102
RTVSPost2010Prop30
280
     1
102
RTVSPost2010PropOp30
 70
     1
102
RTVSPost2010Prop31
280
     0
102
RTVSPost2010PropOp31
 70
     1
102
RTVSPost2010Prop32
280
     0
102
RTVSPost2010PropOp32
 70
     1
102
RTVSPost2010Prop33
280
     0
102
RTVSPost2010PropOp33
 70
     1
102
RTVSPost2010Prop34
280
     0
102
RTVSPost2010PropOp34
 70
     1
102
RTVSPost2010Prop35
280
     0
102
RTVSPost2010PropOp35
 70
     1
102
RTVSPost2010Prop36
280
     0
102
RTVSPost2010PropOp36
 70
     1
102
RTVSPost2010Prop37
 90
       50
102
RTVSPost2010PropOp37
 70
     1
102
RTVSPost2010Prop38
140
0.0
102
RTVSPost2010PropOp38
 70
     1
102
RTVSPost2010Prop39
140
1.0
102
RTVSPost2010PropOp39
 70
     1
102
RTVSPost2010Prop40
 90
        0
102
RTVSPost2010PropOp40
 70
     1
102
RTVSPost2010Prop41ColorIndex
 90
       18
102
RTVSPost2010Prop41ColorRGB
 90
        0
102
RTVSPost2010PropOp41
 70
     1
102
RTVSPost2010Prop42
 90
       50
102
RTVSPost2010PropOp42
 70
     1
102
RTVSPost2010Prop43
 90
        3
102
RTVSPost2010PropOp43
 70
     1
102
RTVSPost2010Prop44ColorIndex
 90
        5
102
RTVSPost2010Prop44ColorRGB
 90
      255
102
RTVSPost2010PropOp44
 70
     1
102
RTVSPost2010Prop45
280
     0
102
RTVSPost2010PropOp45
 70
     1
102
RTVSPost2010Prop46
 90
       50
102
RTVSPost2010PropOp46
 70
     1
102
RTVSPost2010Prop47
 90
       50
102
RTVSPost2010PropOp47
 70
     1
102
RTVSPost2010Prop48
 90
       50
102
RTVSPost2010PropOp48
 70
     1
102
RTVSPost2010Prop49
280
     0
102
RTVSPost2010PropOp49
 70
     1
102
RTVSPost2010Prop50
 90
       50
102
RTVSPost2010PropOp50
 70
     1
102
RTVSPost2010Prop51ColorIndex
 90
      256
102
RTVSPost2010Prop51ColorRGB
 90
-16777216
102
RTVSPost2010PropOp51
 70
     0
102
RTVSPost2010Prop52
140
1.0
102
RTVSPost2010PropOp52
 70
     0
102
RTVSPost2010Prop53
 90
        2
102
RTVSPost2010PropOp53
 70
     1
102
RTVSPost2010Prop54
  1
strokes_ogs.tif
102
RTVSPost2010PropOp54
 70
     1
102
RTVSPost2010Prop55
280
     0
102
RTVSPost2010PropOp55
 70
     1
102
RTVSPost2010Prop56
140
1.0
102
RTVSPost2010PropOp56
 70
     1
102
RTVSPost2010Prop57
140
1.0
102
RTVSPost2010PropOp57
 70
     1
  0
XRECORD
  5
579
102
{ACAD_REACTORS
330
578
102
}
330
578
100
AcDbXrecord
280
     1
102
RTVSPropertyOp0
 70
     1
102
RTVSPropertyOp1
 70
     1
102
RTVSPropertyOp2
 70
     1
102
RTVSPropertyOp3
 70
     1
102
RTVSPropertyOp4
 70
     1
102
RTVSPropertyOp5
 70
     1
102
RTVSPropertyOp6
 70
     1
102
RTVSPropertyOp7
 70
     1
102
RTVSPropertyOp8
 70
     1
102
RTVSPropertyOp9
 70
     1
102
RTVSPropertyOp10
 70
     1
102
RTVSPropertyOp11
 70
     1
102
RTVSPropertyOp12
 70
     1
102
RTVSPropertyOp13
 70
     1
102
RTVSPropertyOp14
 70
     1
102
RTVSPropertyOp15
 70
     1
102
RTVSPropertyOp16
 70
     1
102
RTVSPropertyOp17
 70
     1
102
RTVSPropertyOp18
 70
     1
102
RTVSPropertyOp19
 70
     1
102
RTVSPropertyOp20
 70
     1
102
RTVSPropertyOp21
 70
     1
102
RTVSPropertyOp22
 70
     1
102
RTVSPropertyOp23
 70
     1
102
RTVSPropertyOp24
 70
     1
102
RTVSPropertyOp25
 70
     1
102
RTVSPropertyOp26
 70
     1
102
RTVSPropertyOp27
 70
     1
102
RTVSPropertyOp28
 70
     1
102
RTVSPropertyOp29
 70
     1
102
RTVSPropertyOp30
 70
     1
102
RTVSPropertyOp31
 70
     1
102
RTVSPropertyOp32
 70
     1
102
RTVSPropertyOp33
 70
     1
102
RTVSPropertyOp34
 70
     1
102
RTVSPropertyOp35
 70
     1
102
RTVSPropertyOp36
 70
     1
102
RTVSPropertyOp37
 70
     1
102
RTVSPropertyOp38
 70
     1
102
RTVSPropertyOp39
 70
     1
102
RTVSPropertyOp40
 70
     1
102
RTVSPropertyOp41
 70
     1
102
RTVSPropertyOp42
 70
     1
102
RTVSPropertyOp43
 70
     1
102
RTVSPropertyOp44
 70
     1
102
RTVSPropertyOp45
 70
     1
102
RTVSPropertyOp46
 70
     1
102
RTVSPropertyOp47
 70
     1
102
RTVSPropertyOp48
 70
     1
102
RTVSPropertyOp49
 70
     1
102
RTVSPropertyOp50
 70
     1
102
RTVSPropertyOp51
 70
     0
102
RTVSPropertyOp52
 70
     0
102
RTVSPropertyOp53
 70
     1
102
RTVSPropertyOp54
 70
     1
102
RTVSPropertyOp55
 70
     1
102
RTVSPropertyOp56
 70
     1
102
RTVSPropertyOp57
 70
     1
102
RTVSPost2010Prop28
280
     0
102
RTVSPost2010PropOp28
 70
     1
102
RTVSPost2010Prop29
280
     1
102
RTVSPost2010PropOp29
 70
     1
102
RTVSPost2010Prop30
280
     1
102
RTVSPost2010PropOp30
 70
     1
102
RTVSPost2010Prop31
280
     0
102
RTVSPost2010PropOp31
 70
     1
102
RTVSPost2010Prop32
280
     0
102
RTVSPost2010PropOp32
 70
     1
102
RTVSPost2010Prop33
280
     0
102
RTVSPost2010PropOp33
 70
     1
102
RTVSPost2010Prop34
280
     0
102
RTVSPost2010PropOp34
 70
     1
102
RTVSPost2010Prop35
280
     0
102
RTVSPost2010PropOp35
 70
     1
102
RTVSPost2010Prop36
280
     0
102
RTVSPost2010PropOp36
 70
     1
102
RTVSPost2010Prop37
 90
       50
102
RTVSPost2010PropOp37
 70
     1
102
RTVSPost2010Prop38
140
0.0
102
RTVSPost2010PropOp38
 70
     1
102
RTVSPost2010Prop39
140
1.0
102
RTVSPost2010PropOp39
 70
     1
102
RTVSPost2010Prop40
 90
        0
102
RTVSPost2010PropOp40
 70
     1
102
RTVSPost2010Prop41ColorIndex
 90
       18
102
RTVSPost2010Prop41ColorRGB
 90
        0
102
RTVSPost2010PropOp41
 70
     1
102
RTVSPost2010Prop42
 90
       50
102
RTVSPost2010PropOp42
 70
     1
102
RTVSPost2010Prop43
 90
        3
102
RTVSPost2010PropOp43
 70
     1
102
RTVSPost2010Prop44ColorIndex
 90
        5
102
RTVSPost2010Prop44ColorRGB
 90
      255
102
RTVSPost2010PropOp44
 70
     1
102
RTVSPost2010Prop45
280
     0
102
RTVSPost2010PropOp45
 70
     1
102
RTVSPost2010Prop46
 90
       50
102
RTVSPost2010PropOp46
 70
     1
102
RTVSPost2010Prop47
 90
       50
102
RTVSPost2010PropOp47
 70
     1
102
RTVSPost2010Prop48
 90
       50
102
RTVSPost2010PropOp48
 70
     1
102
RTVSPost2010Prop49
280
     0
102
RTVSPost2010PropOp49
 70
     1
102
RTVSPost2010Prop50
 90
       50
102
RTVSPost2010PropOp50
 70
     1
102
RTVSPost2010Prop51ColorIndex
 90
      256
102
RTVSPost2010Prop51ColorRGB
 90
-16777216
102
RTVSPost2010PropOp51
 70
     0
102
RTVSPost2010Prop52
140
1.0
102
RTVSPost2010PropOp52
 70
     0
102
RTVSPost2010Prop53
 90
        2
102
RTVSPost2010PropOp53
 70
     1
102
RTVSPost2010Prop54
  1
strokes_ogs.tif
102
RTVSPost2010PropOp54
 70
     1
102
RTVSPost2010Prop55
280
     0
102
RTVSPost2010PropOp55
 70
     1
102
RTVSPost2010Prop56
140
1.0
102
RTVSPost2010PropOp56
 70
     1
102
RTVSPost2010Prop57
140
1.0
102
RTVSPost2010PropOp57
 70
     1
  0
XRECORD
  5
581
102
{ACAD_REACTORS
330
580
102
}
330
580
100
AcDbXrecord
280
     1
102
RTVSPropertyOp0
 70
     1
102
RTVSPropertyOp1
 70
     1
102
RTVSPropertyOp2
 70
     1
102
RTVSPropertyOp3
 70
     1
102
RTVSPropertyOp4
 70
     1
102
RTVSPropertyOp5
 70
     1
102
RTVSPropertyOp6
 70
     1
102
RTVSPropertyOp7
 70
     1
102
RTVSPropertyOp8
 70
     1
102
RTVSPropertyOp9
 70
     1
102
RTVSPropertyOp10
 70
     1
102
RTVSPropertyOp11
 70
     1
102
RTVSPropertyOp12
 70
     1
102
RTVSPropertyOp13
 70
     1
102
RTVSPropertyOp14
 70
     1
102
RTVSPropertyOp15
 70
     1
102
RTVSPropertyOp16
 70
     1
102
RTVSPropertyOp17
 70
     1
102
RTVSPropertyOp18
 70
     1
102
RTVSPropertyOp19
 70
     1
102
RTVSPropertyOp20
 70
     1
102
RTVSPropertyOp21
 70
     1
102
RTVSPropertyOp22
 70
     1
102
RTVSPropertyOp23
 70
     1
102
RTVSPropertyOp24
 70
     1
102
RTVSPropertyOp25
 70
     1
102
RTVSPropertyOp26
 70
     1
102
RTVSPropertyOp27
 70
     1
102
RTVSPropertyOp28
 70
     1
102
RTVSPropertyOp29
 70
     1
102
RTVSPropertyOp30
 70
     1
102
RTVSPropertyOp31
 70
     1
102
RTVSPropertyOp32
 70
     1
102
RTVSPropertyOp33
 70
     1
102
RTVSPropertyOp34
 70
     1
102
RTVSPropertyOp35
 70
     1
102
RTVSPropertyOp36
 70
     1
102
RTVSPropertyOp37
 70
     1
102
RTVSPropertyOp38
 70
     1
102
RTVSPropertyOp39
 70
     1
102
RTVSPropertyOp40
 70
     1
102
RTVSPropertyOp41
 70
     1
102
RTVSPropertyOp42
 70
     1
102
RTVSPropertyOp43
 70
     1
102
RTVSPropertyOp44
 70
     1
102
RTVSPropertyOp45
 70
     1
102
RTVSPropertyOp46
 70
     1
102
RTVSPropertyOp47
 70
     1
102
RTVSPropertyOp48
 70
     1
102
RTVSPropertyOp49
 70
     1
102
RTVSPropertyOp50
 70
     1
102
RTVSPropertyOp51
 70
     0
102
RTVSPropertyOp52
 70
     0
102
RTVSPropertyOp53
 70
     1
102
RTVSPropertyOp54
 70
     1
102
RTVSPropertyOp55
 70
     1
102
RTVSPropertyOp56
 70
     1
102
RTVSPropertyOp57
 70
     1
102
RTVSPost2010Prop28
280
     0
102
RTVSPost2010PropOp28
 70
     1
102
RTVSPost2010Prop29
280
     1
102
RTVSPost2010PropOp29
 70
     1
102
RTVSPost2010Prop30
280
     1
102
RTVSPost2010PropOp30
 70
     1
102
RTVSPost2010Prop31
280
     0
102
RTVSPost2010PropOp31
 70
     1
102
RTVSPost2010Prop32
280
     0
102
RTVSPost2010PropOp32
 70
     1
102
RTVSPost2010Prop33
280
     0
102
RTVSPost2010PropOp33
 70
     1
102
RTVSPost2010Prop34
280
     0
102
RTVSPost2010PropOp34
 70
     1
102
RTVSPost2010Prop35
280
     0
102
RTVSPost2010PropOp35
 70
     1
102
RTVSPost2010Prop36
280
     0
102
RTVSPost2010PropOp36
 70
     1
102
RTVSPost2010Prop37
 90
       50
102
RTVSPost2010PropOp37
 70
     1
102
RTVSPost2010Prop38
140
0.0
102
RTVSPost2010PropOp38
 70
     1
102
RTVSPost2010Prop39
140
1.0
102
RTVSPost2010PropOp39
 70
     1
102
RTVSPost2010Prop40
 90
        0
102
RTVSPost2010PropOp40
 70
     1
102
RTVSPost2010Prop41ColorIndex
 90
       18
102
RTVSPost2010Prop41ColorRGB
 90
        0
102
RTVSPost2010PropOp41
 70
     1
102
RTVSPost2010Prop42
 90
       50
102
RTVSPost2010PropOp42
 70
     1
102
RTVSPost2010Prop43
 90
        3
102
RTVSPost2010PropOp43
 70
     1
102
RTVSPost2010Prop44ColorIndex
 90
        5
102
RTVSPost2010Prop44ColorRGB
 90
      255
102
RTVSPost2010PropOp44
 70
     1
102
RTVSPost2010Prop45
280
     0
102
RTVSPost2010PropOp45
 70
     1
102
RTVSPost2010Prop46
 90
       50
102
RTVSPost2010PropOp46
 70
     1
102
RTVSPost2010Prop47
 90
       50
102
RTVSPost2010PropOp47
 70
     1
102
RTVSPost2010Prop48
 90
       50
102
RTVSPost2010PropOp48
 70
     1
102
RTVSPost2010Prop49
280
     0
102
RTVSPost2010PropOp49
 70
     1
102
RTVSPost2010Prop50
 90
       50
102
RTVSPost2010PropOp50
 70
     1
102
RTVSPost2010Prop51ColorIndex
 90
      256
102
RTVSPost2010Prop51ColorRGB
 90
-16777216
102
RTVSPost2010PropOp51
 70
     0
102
RTVSPost2010Prop52
140
1.0
102
RTVSPost2010PropOp52
 70
     0
102
RTVSPost2010Prop53
 90
        2
102
RTVSPost2010PropOp53
 70
     1
102
RTVSPost2010Prop54
  1
strokes_ogs.tif
102
RTVSPost2010PropOp54
 70
     1
102
RTVSPost2010Prop55
280
     0
102
RTVSPost2010PropOp55
 70
     1
102
RTVSPost2010Prop56
140
1.0
102
RTVSPost2010PropOp56
 70
     1
102
RTVSPost2010Prop57
140
1.0
102
RTVSPost2010PropOp57
 70
     1
  0
XRECORD
  5
575
102
{ACAD_REACTORS
330
574
102
}
330
574
100
AcDbXrecord
280
     1
102
RTVSPropertyOp0
 70
     1
102
RTVSPropertyOp1
 70
     1
102
RTVSPropertyOp2
 70
     1
102
RTVSPropertyOp3
 70
     1
102
RTVSPropertyOp4
 70
     1
102
RTVSPropertyOp5
 70
     1
102
RTVSPropertyOp6
 70
     1
102
RTVSPropertyOp7
 70
     1
102
RTVSPropertyOp8
 70
     1
102
RTVSPropertyOp9
 70
     1
102
RTVSPropertyOp10
 70
     1
102
RTVSPropertyOp11
 70
     1
102
RTVSPropertyOp12
 70
     1
102
RTVSPropertyOp13
 70
     1
102
RTVSPropertyOp14
 70
     1
102
RTVSPropertyOp15
 70
     1
102
RTVSPropertyOp16
 70
     1
102
RTVSPropertyOp17
 70
     1
102
RTVSPropertyOp18
 70
     1
102
RTVSPropertyOp19
 70
     1
102
RTVSPropertyOp20
 70
     1
102
RTVSPropertyOp21
 70
     1
102
RTVSPropertyOp22
 70
     1
102
RTVSPropertyOp23
 70
     1
102
RTVSPropertyOp24
 70
     1
102
RTVSPropertyOp25
 70
     1
102
RTVSPropertyOp26
 70
     1
102
RTVSPropertyOp27
 70
     1
102
RTVSPropertyOp28
 70
     1
102
RTVSPropertyOp29
 70
     1
102
RTVSPropertyOp30
 70
     1
102
RTVSPropertyOp31
 70
     1
102
RTVSPropertyOp32
 70
     1
102
RTVSPropertyOp33
 70
     1
102
RTVSPropertyOp34
 70
     1
102
RTVSPropertyOp35
 70
     1
102
RTVSPropertyOp36
 70
     1
102
RTVSPropertyOp37
 70
     1
102
RTVSPropertyOp38
 70
     1
102
RTVSPropertyOp39
 70
     1
102
RTVSPropertyOp40
 70
     1
102
RTVSPropertyOp41
 70
     1
102
RTVSPropertyOp42
 70
     1
102
RTVSPropertyOp43
 70
     1
102
RTVSPropertyOp44
 70
     1
102
RTVSPropertyOp45
 70
     1
102
RTVSPropertyOp46
 70
     1
102
RTVSPropertyOp47
 70
     1
102
RTVSPropertyOp48
 70
     1
102
RTVSPropertyOp49
 70
     1
102
RTVSPropertyOp50
 70
     1
102
RTVSPropertyOp51
 70
     0
102
RTVSPropertyOp52
 70
     0
102
RTVSPropertyOp53
 70
     1
102
RTVSPropertyOp54
 70
     1
102
RTVSPropertyOp55
 70
     1
102
RTVSPropertyOp56
 70
     1
102
RTVSPropertyOp57
 70
     1
102
RTVSPost2010Prop28
280
     0
102
RTVSPost2010PropOp28
 70
     1
102
RTVSPost2010Prop29
280
     1
102
RTVSPost2010PropOp29
 70
     1
102
RTVSPost2010Prop30
280
     1
102
RTVSPost2010PropOp30
 70
     1
102
RTVSPost2010Prop31
280
     0
102
RTVSPost2010PropOp31
 70
     1
102
RTVSPost2010Prop32
280
     0
102
RTVSPost2010PropOp32
 70
     1
102
RTVSPost2010Prop33
280
     0
102
RTVSPost2010PropOp33
 70
     1
102
RTVSPost2010Prop34
280
     0
102
RTVSPost2010PropOp34
 70
     1
102
RTVSPost2010Prop35
280
     0
102
RTVSPost2010PropOp35
 70
     1
102
RTVSPost2010Prop36
280
     0
102
RTVSPost2010PropOp36
 70
     1
102
RTVSPost2010Prop37
 90
       50
102
RTVSPost2010PropOp37
 70
     1
102
RTVSPost2010Prop38
140
0.0
102
RTVSPost2010PropOp38
 70
     1
102
RTVSPost2010Prop39
140
1.0
102
RTVSPost2010PropOp39
 70
     1
102
RTVSPost2010Prop40
 90
        0
102
RTVSPost2010PropOp40
 70
     1
102
RTVSPost2010Prop41ColorIndex
 90
       18
102
RTVSPost2010Prop41ColorRGB
 90
        0
102
RTVSPost2010PropOp41
 70
     1
102
RTVSPost2010Prop42
 90
       50
102
RTVSPost2010PropOp42
 70
     1
102
RTVSPost2010Prop43
 90
        3
102
RTVSPost2010PropOp43
 70
     1
102
RTVSPost2010Prop44ColorIndex
 90
        5
102
RTVSPost2010Prop44ColorRGB
 90
      255
102
RTVSPost2010PropOp44
 70
     1
102
RTVSPost2010Prop45
280
     0
102
RTVSPost2010PropOp45
 70
     1
102
RTVSPost2010Prop46
 90
       50
102
RTVSPost2010PropOp46
 70
     1
102
RTVSPost2010Prop47
 90
       50
102
RTVSPost2010PropOp47
 70
     1
102
RTVSPost2010Prop48
 90
       50
102
RTVSPost2010PropOp48
 70
     1
102
RTVSPost2010Prop49
280
     0
102
RTVSPost2010PropOp49
 70
     1
102
RTVSPost2010Prop50
 90
       50
102
RTVSPost2010PropOp50
 70
     1
102
RTVSPost2010Prop51ColorIndex
 90
      256
102
RTVSPost2010Prop51ColorRGB
 90
-16777216
102
RTVSPost2010PropOp51
 70
     0
102
RTVSPost2010Prop52
140
1.0
102
RTVSPost2010PropOp52
 70
     0
102
RTVSPost2010Prop53
 90
        2
102
RTVSPost2010PropOp53
 70
     1
102
RTVSPost2010Prop54
  1
strokes_ogs.tif
102
RTVSPost2010PropOp54
 70
     1
102
RTVSPost2010Prop55
280
     0
102
RTVSPost2010PropOp55
 70
     1
102
RTVSPost2010Prop56
140
1.0
102
RTVSPost2010PropOp56
 70
     1
102
RTVSPost2010Prop57
140
1.0
102
RTVSPost2010PropOp57
 70
     1
  0
XRECORD
  5
577
102
{ACAD_REACTORS
330
576
102
}
330
576
100
AcDbXrecord
280
     1
102
RTVSPropertyOp0
 70
     1
102
RTVSPropertyOp1
 70
     1
102
RTVSPropertyOp2
 70
     1
102
RTVSPropertyOp3
 70
     1
102
RTVSPropertyOp4
 70
     1
102
RTVSPropertyOp5
 70
     1
102
RTVSPropertyOp6
 70
     1
102
RTVSPropertyOp7
 70
     1
102
RTVSPropertyOp8
 70
     1
102
RTVSPropertyOp9
 70
     1
102
RTVSPropertyOp10
 70
     1
102
RTVSPropertyOp11
 70
     1
102
RTVSPropertyOp12
 70
     1
102
RTVSPropertyOp13
 70
     1
102
RTVSPropertyOp14
 70
     1
102
RTVSPropertyOp15
 70
     1
102
RTVSPropertyOp16
 70
     1
102
RTVSPropertyOp17
 70
     1
102
RTVSPropertyOp18
 70
     1
102
RTVSPropertyOp19
 70
     1
102
RTVSPropertyOp20
 70
     1
102
RTVSPropertyOp21
 70
     1
102
RTVSPropertyOp22
 70
     1
102
RTVSPropertyOp23
 70
     1
102
RTVSPropertyOp24
 70
     1
102
RTVSPropertyOp25
 70
     1
102
RTVSPropertyOp26
 70
     1
102
RTVSPropertyOp27
 70
     1
102
RTVSPropertyOp28
 70
     1
102
RTVSPropertyOp29
 70
     1
102
RTVSPropertyOp30
 70
     1
102
RTVSPropertyOp31
 70
     1
102
RTVSPropertyOp32
 70
     1
102
RTVSPropertyOp33
 70
     1
102
RTVSPropertyOp34
 70
     1
102
RTVSPropertyOp35
 70
     1
102
RTVSPropertyOp36
 70
     1
102
RTVSPropertyOp37
 70
     1
102
RTVSPropertyOp38
 70
     1
102
RTVSPropertyOp39
 70
     1
102
RTVSPropertyOp40
 70
     1
102
RTVSPropertyOp41
 70
     1
102
RTVSPropertyOp42
 70
     1
102
RTVSPropertyOp43
 70
     1
102
RTVSPropertyOp44
 70
     1
102
RTVSPropertyOp45
 70
     1
102
RTVSPropertyOp46
 70
     1
102
RTVSPropertyOp47
 70
     1
102
RTVSPropertyOp48
 70
     1
102
RTVSPropertyOp49
 70
     1
102
RTVSPropertyOp50
 70
     1
102
RTVSPropertyOp51
 70
     0
102
RTVSPropertyOp52
 70
     0
102
RTVSPropertyOp53
 70
     1
102
RTVSPropertyOp54
 70
     1
102
RTVSPropertyOp55
 70
     1
102
RTVSPropertyOp56
 70
     1
102
RTVSPropertyOp57
 70
     1
102
RTVSPost2010Prop28
280
     0
102
RTVSPost2010PropOp28
 70
     1
102
RTVSPost2010Prop29
280
     1
102
RTVSPost2010PropOp29
 70
     1
102
RTVSPost2010Prop30
280
     1
102
RTVSPost2010PropOp30
 70
     1
102
RTVSPost2010Prop31
280
     0
102
RTVSPost2010PropOp31
 70
     1
102
RTVSPost2010Prop32
280
     0
102
RTVSPost2010PropOp32
 70
     1
102
RTVSPost2010Prop33
280
     0
102
RTVSPost2010PropOp33
 70
     1
102
RTVSPost2010Prop34
280
     0
102
RTVSPost2010PropOp34
 70
     1
102
RTVSPost2010Prop35
280
     0
102
RTVSPost2010PropOp35
 70
     1
102
RTVSPost2010Prop36
280
     0
102
RTVSPost2010PropOp36
 70
     1
102
RTVSPost2010Prop37
 90
       50
102
RTVSPost2010PropOp37
 70
     1
102
RTVSPost2010Prop38
140
0.0
102
RTVSPost2010PropOp38
 70
     1
102
RTVSPost2010Prop39
140
1.0
102
RTVSPost2010PropOp39
 70
     1
102
RTVSPost2010Prop40
 90
        0
102
RTVSPost2010PropOp40
 70
     1
102
RTVSPost2010Prop41ColorIndex
 90
       18
102
RTVSPost2010Prop41ColorRGB
 90
        0
102
RTVSPost2010PropOp41
 70
     1
102
RTVSPost2010Prop42
 90
       50
102
RTVSPost2010PropOp42
 70
     1
102
RTVSPost2010Prop43
 90
        3
102
RTVSPost2010PropOp43
 70
     1
102
RTVSPost2010Prop44ColorIndex
 90
        5
102
RTVSPost2010Prop44ColorRGB
 90
      255
102
RTVSPost2010PropOp44
 70
     1
102
RTVSPost2010Prop45
280
     0
102
RTVSPost2010PropOp45
 70
     1
102
RTVSPost2010Prop46
 90
       50
102
RTVSPost2010PropOp46
 70
     1
102
RTVSPost2010Prop47
 90
       50
102
RTVSPost2010PropOp47
 70
     1
102
RTVSPost2010Prop48
 90
       50
102
RTVSPost2010PropOp48
 70
     1
102
RTVSPost2010Prop49
280
     0
102
RTVSPost2010PropOp49
 70
     1
102
RTVSPost2010Prop50
 90
       50
102
RTVSPost2010PropOp50
 70
     1
102
RTVSPost2010Prop51ColorIndex
 90
      256
102
RTVSPost2010Prop51ColorRGB
 90
-16777216
102
RTVSPost2010PropOp51
 70
     0
102
RTVSPost2010Prop52
140
1.0
102
RTVSPost2010PropOp52
 70
     0
102
RTVSPost2010Prop53
 90
        2
102
RTVSPost2010PropOp53
 70
     1
102
RTVSPost2010Prop54
  1
strokes_ogs.tif
102
RTVSPost2010PropOp54
 70
     1
102
RTVSPost2010Prop55
280
     0
102
RTVSPost2010PropOp55
 70
     1
102
RTVSPost2010Prop56
140
1.0
102
RTVSPost2010PropOp56
 70
     1
102
RTVSPost2010Prop57
140
1.0
102
RTVSPost2010PropOp57
 70
     1
  0
XRECORD
  5
587
102
{ACAD_REACTORS
330
586
102
}
330
586
100
AcDbXrecord
280
     1
102
RTVSPropertyOp0
 70
     0
102
RTVSPropertyOp1
 70
     0
102
RTVSPropertyOp2
 70
     0
102
RTVSPropertyOp3
 70
     0
102
RTVSPropertyOp4
 70
     0
102
RTVSPropertyOp5
 70
     0
102
RTVSPropertyOp6
 70
     0
102
RTVSPropertyOp7
 70
     0
102
RTVSPropertyOp8
 70
     0
102
RTVSPropertyOp9
 70
     0
102
RTVSPropertyOp10
 70
     0
102
RTVSPropertyOp11
 70
     0
102
RTVSPropertyOp12
 70
     0
102
RTVSPropertyOp13
 70
     0
102
RTVSPropertyOp14
 70
     2
102
RTVSPropertyOp15
 70
     0
102
RTVSPropertyOp16
 70
     0
102
RTVSPropertyOp17
 70
     0
102
RTVSPropertyOp18
 70
     0
102
RTVSPropertyOp19
 70
     0
102
RTVSPropertyOp20
 70
     0
102
RTVSPropertyOp21
 70
     0
102
RTVSPropertyOp22
 70
     0
102
RTVSPropertyOp23
 70
     0
102
RTVSPropertyOp24
 70
     0
102
RTVSPropertyOp25
 70
     0
102
RTVSPropertyOp26
 70
     0
102
RTVSPropertyOp27
 70
     0
102
RTVSPropertyOp28
 70
     0
102
RTVSPropertyOp29
 70
     0
102
RTVSPropertyOp30
 70
     0
102
RTVSPropertyOp31
 70
     0
102
RTVSPropertyOp32
 70
     0
102
RTVSPropertyOp33
 70
     0
102
RTVSPropertyOp34
 70
     0
102
RTVSPropertyOp35
 70
     0
102
RTVSPropertyOp36
 70
     0
102
RTVSPropertyOp37
 70
     0
102
RTVSPropertyOp38
 70
     0
102
RTVSPropertyOp39
 70
     0
102
RTVSPropertyOp40
 70
     0
102
RTVSPropertyOp41
 70
     0
102
RTVSPropertyOp42
 70
     0
102
RTVSPropertyOp43
 70
     0
102
RTVSPropertyOp44
 70
     0
102
RTVSPropertyOp45
 70
     0
102
RTVSPropertyOp46
 70
     0
102
RTVSPropertyOp47
 70
     0
102
RTVSPropertyOp48
 70
     0
102
RTVSPropertyOp49
 70
     0
102
RTVSPropertyOp50
 70
     0
102
RTVSPropertyOp51
 70
     0
102
RTVSPropertyOp52
 70
     0
102
RTVSPropertyOp53
 70
     0
102
RTVSPropertyOp54
 70
     0
102
RTVSPropertyOp55
 70
     0
102
RTVSPropertyOp56
 70
     0
102
RTVSPropertyOp57
 70
     0
102
RTVSPost2010Prop28
280
     0
102
RTVSPost2010PropOp28
 70
     0
102
RTVSPost2010Prop29
280
     1
102
RTVSPost2010PropOp29
 70
     0
102
RTVSPost2010Prop30
280
     1
102
RTVSPost2010PropOp30
 70
     0
102
RTVSPost2010Prop31
280
     0
102
RTVSPost2010PropOp31
 70
     0
102
RTVSPost2010Prop32
280
     0
102
RTVSPost2010PropOp32
 70
     0
102
RTVSPost2010Prop33
280
     0
102
RTVSPost2010PropOp33
 70
     0
102
RTVSPost2010Prop34
280
     0
102
RTVSPost2010PropOp34
 70
     0
102
RTVSPost2010Prop35
280
     0
102
RTVSPost2010PropOp35
 70
     0
102
RTVSPost2010Prop36
280
     0
102
RTVSPost2010PropOp36
 70
     0
102
RTVSPost2010Prop37
 90
       50
102
RTVSPost2010PropOp37
 70
     0
102
RTVSPost2010Prop38
140
0.0
102
RTVSPost2010PropOp38
 70
     0
102
RTVSPost2010Prop39
140
1.0
102
RTVSPost2010PropOp39
 70
     0
102
RTVSPost2010Prop40
 90
        0
102
RTVSPost2010PropOp40
 70
     0
102
RTVSPost2010Prop41ColorIndex
 90
       18
102
RTVSPost2010Prop41ColorRGB
 90
        0
102
RTVSPost2010PropOp41
 70
     0
102
RTVSPost2010Prop42
 90
       50
102
RTVSPost2010PropOp42
 70
     0
102
RTVSPost2010Prop43
 90
        3
102
RTVSPost2010PropOp43
 70
     0
102
RTVSPost2010Prop44ColorIndex
 90
        5
102
RTVSPost2010Prop44ColorRGB
 90
      255
102
RTVSPost2010PropOp44
 70
     0
102
RTVSPost2010Prop45
280
     0
102
RTVSPost2010PropOp45
 70
     0
102
RTVSPost2010Prop46
 90
       50
102
RTVSPost2010PropOp46
 70
     0
102
RTVSPost2010Prop47
 90
       50
102
RTVSPost2010PropOp47
 70
     0
102
RTVSPost2010Prop48
 90
       50
102
RTVSPost2010PropOp48
 70
     0
102
RTVSPost2010Prop49
280
     0
102
RTVSPost2010PropOp49
 70
     0
102
RTVSPost2010Prop50
 90
       50
102
RTVSPost2010PropOp50
 70
     0
102
RTVSPost2010Prop51ColorIndex
 90
      256
102
RTVSPost2010Prop51ColorRGB
 90
-16777216
102
RTVSPost2010PropOp51
 70
     0
102
RTVSPost2010Prop52
140
1.0
102
RTVSPost2010PropOp52
 70
     0
102
RTVSPost2010Prop53
 90
        2
102
RTVSPost2010PropOp53
 70
     0
102
RTVSPost2010Prop54
  1
strokes_ogs.tif
102
RTVSPost2010PropOp54
 70
     0
102
RTVSPost2010Prop55
280
     0
102
RTVSPost2010PropOp55
 70
     0
102
RTVSPost2010Prop56
140
1.0
102
RTVSPost2010PropOp56
 70
     0
102
RTVSPost2010Prop57
140
1.0
102
RTVSPost2010PropOp57
 70
     0
  0
XRECORD
  5
57F
102
{ACAD_REACTORS
330
57E
102
}
330
57E
100
AcDbXrecord
280
     1
102
RTVSPropertyOp0
 70
     1
102
RTVSPropertyOp1
 70
     1
102
RTVSPropertyOp2
 70
     1
102
RTVSPropertyOp3
 70
     1
102
RTVSPropertyOp4
 70
     1
102
RTVSPropertyOp5
 70
     1
102
RTVSPropertyOp6
 70
     1
102
RTVSPropertyOp7
 70
     1
102
RTVSPropertyOp8
 70
     1
102
RTVSPropertyOp9
 70
     1
102
RTVSPropertyOp10
 70
     1
102
RTVSPropertyOp11
 70
     1
102
RTVSPropertyOp12
 70
     1
102
RTVSPropertyOp13
 70
     1
102
RTVSPropertyOp14
 70
     1
102
RTVSPropertyOp15
 70
     1
102
RTVSPropertyOp16
 70
     1
102
RTVSPropertyOp17
 70
     1
102
RTVSPropertyOp18
 70
     1
102
RTVSPropertyOp19
 70
     1
102
RTVSPropertyOp20
 70
     1
102
RTVSPropertyOp21
 70
     1
102
RTVSPropertyOp22
 70
     1
102
RTVSPropertyOp23
 70
     1
102
RTVSPropertyOp24
 70
     1
102
RTVSPropertyOp25
 70
     1
102
RTVSPropertyOp26
 70
     1
102
RTVSPropertyOp27
 70
     1
102
RTVSPropertyOp28
 70
     1
102
RTVSPropertyOp29
 70
     1
102
RTVSPropertyOp30
 70
     1
102
RTVSPropertyOp31
 70
     1
102
RTVSPropertyOp32
 70
     1
102
RTVSPropertyOp33
 70
     1
102
RTVSPropertyOp34
 70
     1
102
RTVSPropertyOp35
 70
     1
102
RTVSPropertyOp36
 70
     1
102
RTVSPropertyOp37
 70
     1
102
RTVSPropertyOp38
 70
     1
102
RTVSPropertyOp39
 70
     1
102
RTVSPropertyOp40
 70
     1
102
RTVSPropertyOp41
 70
     1
102
RTVSPropertyOp42
 70
     1
102
RTVSPropertyOp43
 70
     1
102
RTVSPropertyOp44
 70
     1
102
RTVSPropertyOp45
 70
     1
102
RTVSPropertyOp46
 70
     1
102
RTVSPropertyOp47
 70
     1
102
RTVSPropertyOp48
 70
     1
102
RTVSPropertyOp49
 70
     1
102
RTVSPropertyOp50
 70
     1
102
RTVSPropertyOp51
 70
     0
102
RTVSPropertyOp52
 70
     0
102
RTVSPropertyOp53
 70
     1
102
RTVSPropertyOp54
 70
     1
102
RTVSPropertyOp55
 70
     1
102
RTVSPropertyOp56
 70
     1
102
RTVSPropertyOp57
 70
     1
102
RTVSPost2010Prop28
280
     0
102
RTVSPost2010PropOp28
 70
     1
102
RTVSPost2010Prop29
280
     1
102
RTVSPost2010PropOp29
 70
     1
102
RTVSPost2010Prop30
280
     1
102
RTVSPost2010PropOp30
 70
     1
102
RTVSPost2010Prop31
280
     0
102
RTVSPost2010PropOp31
 70
     1
102
RTVSPost2010Prop32
280
     0
102
RTVSPost2010PropOp32
 70
     1
102
RTVSPost2010Prop33
280
     0
102
RTVSPost2010PropOp33
 70
     1
102
RTVSPost2010Prop34
280
     0
102
RTVSPost2010PropOp34
 70
     1
102
RTVSPost2010Prop35
280
     0
102
RTVSPost2010PropOp35
 70
     1
102
RTVSPost2010Prop36
280
     0
102
RTVSPost2010PropOp36
 70
     1
102
RTVSPost2010Prop37
 90
       50
102
RTVSPost2010PropOp37
 70
     1
102
RTVSPost2010Prop38
140
0.0
102
RTVSPost2010PropOp38
 70
     1
102
RTVSPost2010Prop39
140
1.0
102
RTVSPost2010PropOp39
 70
     1
102
RTVSPost2010Prop40
 90
        0
102
RTVSPost2010PropOp40
 70
     1
102
RTVSPost2010Prop41ColorIndex
 90
       18
102
RTVSPost2010Prop41ColorRGB
 90
        0
102
RTVSPost2010PropOp41
 70
     1
102
RTVSPost2010Prop42
 90
       50
102
RTVSPost2010PropOp42
 70
     1
102
RTVSPost2010Prop43
 90
        3
102
RTVSPost2010PropOp43
 70
     1
102
RTVSPost2010Prop44ColorIndex
 90
        5
102
RTVSPost2010Prop44ColorRGB
 90
      255
102
RTVSPost2010PropOp44
 70
     1
102
RTVSPost2010Prop45
280
     0
102
RTVSPost2010PropOp45
 70
     1
102
RTVSPost2010Prop46
 90
       50
102
RTVSPost2010PropOp46
 70
     1
102
RTVSPost2010Prop47
 90
       50
102
RTVSPost2010PropOp47
 70
     1
102
RTVSPost2010Prop48
 90
       50
102
RTVSPost2010PropOp48
 70
     1
102
RTVSPost2010Prop49
280
     0
102
RTVSPost2010PropOp49
 70
     1
102
RTVSPost2010Prop50
 90
       50
102
RTVSPost2010PropOp50
 70
     1
102
RTVSPost2010Prop51ColorIndex
 90
      256
102
RTVSPost2010Prop51ColorRGB
 90
-16777216
102
RTVSPost2010PropOp51
 70
     0
102
RTVSPost2010Prop52
140
1.0
102
RTVSPost2010PropOp52
 70
     0
102
RTVSPost2010Prop53
 90
        2
102
RTVSPost2010PropOp53
 70
     1
102
RTVSPost2010Prop54
  1
strokes_ogs.tif
102
RTVSPost2010PropOp54
 70
     1
102
RTVSPost2010Prop55
280
     0
102
RTVSPost2010PropOp55
 70
     1
102
RTVSPost2010Prop56
140
1.0
102
RTVSPost2010PropOp56
 70
     1
102
RTVSPost2010Prop57
140
1.0
102
RTVSPost2010PropOp57
 70
     1
  0
XRECORD
  5
563
102
{ACAD_REACTORS
330
562
102
}
330
562
100
AcDbXrecord
280
     1
102
RTVSPropertyOp0
 70
     1
102
RTVSPropertyOp1
 70
     1
102
RTVSPropertyOp2
 70
     1
102
RTVSPropertyOp3
 70
     1
102
RTVSPropertyOp4
 70
     1
102
RTVSPropertyOp5
 70
     1
102
RTVSPropertyOp6
 70
     1
102
RTVSPropertyOp7
 70
     1
102
RTVSPropertyOp8
 70
     1
102
RTVSPropertyOp9
 70
     1
102
RTVSPropertyOp10
 70
     1
102
RTVSPropertyOp11
 70
     1
102
RTVSPropertyOp12
 70
     1
102
RTVSPropertyOp13
 70
     1
102
RTVSPropertyOp14
 70
     1
102
RTVSPropertyOp15
 70
     1
102
RTVSPropertyOp16
 70
     1
102
RTVSPropertyOp17
 70
     1
102
RTVSPropertyOp18
 70
     1
102
RTVSPropertyOp19
 70
     1
102
RTVSPropertyOp20
 70
     1
102
RTVSPropertyOp21
 70
     1
102
RTVSPropertyOp22
 70
     1
102
RTVSPropertyOp23
 70
     1
102
RTVSPropertyOp24
 70
     1
102
RTVSPropertyOp25
 70
     1
102
RTVSPropertyOp26
 70
     1
102
RTVSPropertyOp27
 70
     1
102
RTVSPropertyOp28
 70
     1
102
RTVSPropertyOp29
 70
     1
102
RTVSPropertyOp30
 70
     1
102
RTVSPropertyOp31
 70
     1
102
RTVSPropertyOp32
 70
     1
102
RTVSPropertyOp33
 70
     1
102
RTVSPropertyOp34
 70
     1
102
RTVSPropertyOp35
 70
     1
102
RTVSPropertyOp36
 70
     1
102
RTVSPropertyOp37
 70
     1
102
RTVSPropertyOp38
 70
     1
102
RTVSPropertyOp39
 70
     1
102
RTVSPropertyOp40
 70
     1
102
RTVSPropertyOp41
 70
     1
102
RTVSPropertyOp42
 70
     1
102
RTVSPropertyOp43
 70
     1
102
RTVSPropertyOp44
 70
     1
102
RTVSPropertyOp45
 70
     1
102
RTVSPropertyOp46
 70
     1
102
RTVSPropertyOp47
 70
     1
102
RTVSPropertyOp48
 70
     1
102
RTVSPropertyOp49
 70
     1
102
RTVSPropertyOp50
 70
     1
102
RTVSPropertyOp51
 70
     0
102
RTVSPropertyOp52
 70
     0
102
RTVSPropertyOp53
 70
     1
102
RTVSPropertyOp54
 70
     1
102
RTVSPropertyOp55
 70
     1
102
RTVSPropertyOp56
 70
     1
102
RTVSPropertyOp57
 70
     1
102
RTVSPost2010Prop28
280
     0
102
RTVSPost2010PropOp28
 70
     1
102
RTVSPost2010Prop29
280
     1
102
RTVSPost2010PropOp29
 70
     1
102
RTVSPost2010Prop30
280
     1
102
RTVSPost2010PropOp30
 70
     1
102
RTVSPost2010Prop31
280
     0
102
RTVSPost2010PropOp31
 70
     1
102
RTVSPost2010Prop32
280
     0
102
RTVSPost2010PropOp32
 70
     1
102
RTVSPost2010Prop33
280
     0
102
RTVSPost2010PropOp33
 70
     1
102
RTVSPost2010Prop34
280
     0
102
RTVSPost2010PropOp34
 70
     1
102
RTVSPost2010Prop35
280
     0
102
RTVSPost2010PropOp35
 70
     1
102
RTVSPost2010Prop36
280
     0
102
RTVSPost2010PropOp36
 70
     1
102
RTVSPost2010Prop37
 90
       50
102
RTVSPost2010PropOp37
 70
     1
102
RTVSPost2010Prop38
140
0.0
102
RTVSPost2010PropOp38
 70
     1
102
RTVSPost2010Prop39
140
1.0
102
RTVSPost2010PropOp39
 70
     1
102
RTVSPost2010Prop40
 90
        0
102
RTVSPost2010PropOp40
 70
     1
102
RTVSPost2010Prop41ColorIndex
 90
       18
102
RTVSPost2010Prop41ColorRGB
 90
        0
102
RTVSPost2010PropOp41
 70
     1
102
RTVSPost2010Prop42
 90
       50
102
RTVSPost2010PropOp42
 70
     1
102
RTVSPost2010Prop43
 90
        3
102
RTVSPost2010PropOp43
 70
     1
102
RTVSPost2010Prop44ColorIndex
 90
        5
102
RTVSPost2010Prop44ColorRGB
 90
      255
102
RTVSPost2010PropOp44
 70
     1
102
RTVSPost2010Prop45
280
     0
102
RTVSPost2010PropOp45
 70
     1
102
RTVSPost2010Prop46
 90
       50
102
RTVSPost2010PropOp46
 70
     1
102
RTVSPost2010Prop47
 90
       50
102
RTVSPost2010PropOp47
 70
     1
102
RTVSPost2010Prop48
 90
       50
102
RTVSPost2010PropOp48
 70
     1
102
RTVSPost2010Prop49
280
     0
102
RTVSPost2010PropOp49
 70
     1
102
RTVSPost2010Prop50
 90
       50
102
RTVSPost2010PropOp50
 70
     1
102
RTVSPost2010Prop51ColorIndex
 90
      256
102
RTVSPost2010Prop51ColorRGB
 90
-16777216
102
RTVSPost2010PropOp51
 70
     0
102
RTVSPost2010Prop52
140
1.0
102
RTVSPost2010PropOp52
 70
     0
102
RTVSPost2010Prop53
 90
        2
102
RTVSPost2010PropOp53
 70
     1
102
RTVSPost2010Prop54
  1
strokes_ogs.tif
102
RTVSPost2010PropOp54
 70
     1
102
RTVSPost2010Prop55
280
     0
102
RTVSPost2010PropOp55
 70
     1
102
RTVSPost2010Prop56
140
1.0
102
RTVSPost2010PropOp56
 70
     1
102
RTVSPost2010Prop57
140
1.0
102
RTVSPost2010PropOp57
 70
     1
  0
XRECORD
  5
565
102
{ACAD_REACTORS
330
564
102
}
330
564
100
AcDbXrecord
280
     1
102
RTVSPropertyOp0
 70
     1
102
RTVSPropertyOp1
 70
     1
102
RTVSPropertyOp2
 70
     1
102
RTVSPropertyOp3
 70
     1
102
RTVSPropertyOp4
 70
     1
102
RTVSPropertyOp5
 70
     1
102
RTVSPropertyOp6
 70
     1
102
RTVSPropertyOp7
 70
     1
102
RTVSPropertyOp8
 70
     1
102
RTVSPropertyOp9
 70
     1
102
RTVSPropertyOp10
 70
     1
102
RTVSPropertyOp11
 70
     1
102
RTVSPropertyOp12
 70
     1
102
RTVSPropertyOp13
 70
     1
102
RTVSPropertyOp14
 70
     1
102
RTVSPropertyOp15
 70
     1
102
RTVSPropertyOp16
 70
     1
102
RTVSPropertyOp17
 70
     1
102
RTVSPropertyOp18
 70
     1
102
RTVSPropertyOp19
 70
     1
102
RTVSPropertyOp20
 70
     1
102
RTVSPropertyOp21
 70
     1
102
RTVSPropertyOp22
 70
     1
102
RTVSPropertyOp23
 70
     1
102
RTVSPropertyOp24
 70
     1
102
RTVSPropertyOp25
 70
     1
102
RTVSPropertyOp26
 70
     1
102
RTVSPropertyOp27
 70
     1
102
RTVSPropertyOp28
 70
     1
102
RTVSPropertyOp29
 70
     1
102
RTVSPropertyOp30
 70
     1
102
RTVSPropertyOp31
 70
     1
102
RTVSPropertyOp32
 70
     1
102
RTVSPropertyOp33
 70
     1
102
RTVSPropertyOp34
 70
     1
102
RTVSPropertyOp35
 70
     1
102
RTVSPropertyOp36
 70
     1
102
RTVSPropertyOp37
 70
     1
102
RTVSPropertyOp38
 70
     1
102
RTVSPropertyOp39
 70
     1
102
RTVSPropertyOp40
 70
     1
102
RTVSPropertyOp41
 70
     1
102
RTVSPropertyOp42
 70
     1
102
RTVSPropertyOp43
 70
     1
102
RTVSPropertyOp44
 70
     1
102
RTVSPropertyOp45
 70
     1
102
RTVSPropertyOp46
 70
     1
102
RTVSPropertyOp47
 70
     1
102
RTVSPropertyOp48
 70
     1
102
RTVSPropertyOp49
 70
     1
102
RTVSPropertyOp50
 70
     1
102
RTVSPropertyOp51
 70
     0
102
RTVSPropertyOp52
 70
     0
102
RTVSPropertyOp53
 70
     1
102
RTVSPropertyOp54
 70
     1
102
RTVSPropertyOp55
 70
     1
102
RTVSPropertyOp56
 70
     1
102
RTVSPropertyOp57
 70
     1
102
RTVSPost2010Prop28
280
     0
102
RTVSPost2010PropOp28
 70
     1
102
RTVSPost2010Prop29
280
     1
102
RTVSPost2010PropOp29
 70
     1
102
RTVSPost2010Prop30
280
     1
102
RTVSPost2010PropOp30
 70
     1
102
RTVSPost2010Prop31
280
     0
102
RTVSPost2010PropOp31
 70
     1
102
RTVSPost2010Prop32
280
     0
102
RTVSPost2010PropOp32
 70
     1
102
RTVSPost2010Prop33
280
     0
102
RTVSPost2010PropOp33
 70
     1
102
RTVSPost2010Prop34
280
     0
102
RTVSPost2010PropOp34
 70
     1
102
RTVSPost2010Prop35
280
     0
102
RTVSPost2010PropOp35
 70
     1
102
RTVSPost2010Prop36
280
     0
102
RTVSPost2010PropOp36
 70
     1
102
RTVSPost2010Prop37
 90
       50
102
RTVSPost2010PropOp37
 70
     1
102
RTVSPost2010Prop38
140
0.0
102
RTVSPost2010PropOp38
 70
     1
102
RTVSPost2010Prop39
140
1.0
102
RTVSPost2010PropOp39
 70
     1
102
RTVSPost2010Prop40
 90
        0
102
RTVSPost2010PropOp40
 70
     1
102
RTVSPost2010Prop41ColorIndex
 90
       18
102
RTVSPost2010Prop41ColorRGB
 90
        0
102
RTVSPost2010PropOp41
 70
     1
102
RTVSPost2010Prop42
 90
       50
102
RTVSPost2010PropOp42
 70
     1
102
RTVSPost2010Prop43
 90
        3
102
RTVSPost2010PropOp43
 70
     1
102
RTVSPost2010Prop44ColorIndex
 90
        5
102
RTVSPost2010Prop44ColorRGB
 90
      255
102
RTVSPost2010PropOp44
 70
     1
102
RTVSPost2010Prop45
280
     0
102
RTVSPost2010PropOp45
 70
     1
102
RTVSPost2010Prop46
 90
       50
102
RTVSPost2010PropOp46
 70
     1
102
RTVSPost2010Prop47
 90
       50
102
RTVSPost2010PropOp47
 70
     1
102
RTVSPost2010Prop48
 90
       50
102
RTVSPost2010PropOp48
 70
     1
102
RTVSPost2010Prop49
280
     0
102
RTVSPost2010PropOp49
 70
     1
102
RTVSPost2010Prop50
 90
       50
102
RTVSPost2010PropOp50
 70
     1
102
RTVSPost2010Prop51ColorIndex
 90
      256
102
RTVSPost2010Prop51ColorRGB
 90
-16777216
102
RTVSPost2010PropOp51
 70
     0
102
RTVSPost2010Prop52
140
1.0
102
RTVSPost2010PropOp52
 70
     0
102
RTVSPost2010Prop53
 90
        2
102
RTVSPost2010PropOp53
 70
     1
102
RTVSPost2010Prop54
  1
strokes_ogs.tif
102
RTVSPost2010PropOp54
 70
     1
102
RTVSPost2010Prop55
280
     0
102
RTVSPost2010PropOp55
 70
     1
102
RTVSPost2010Prop56
140
1.0
102
RTVSPost2010PropOp56
 70
     1
102
RTVSPost2010Prop57
140
1.0
102
RTVSPost2010PropOp57
 70
     1
  0
XRECORD
  5
567
102
{ACAD_REACTORS
330
566
102
}
330
566
100
AcDbXrecord
280
     1
102
RTVSPropertyOp0
 70
     1
102
RTVSPropertyOp1
 70
     1
102
RTVSPropertyOp2
 70
     1
102
RTVSPropertyOp3
 70
     1
102
RTVSPropertyOp4
 70
     1
102
RTVSPropertyOp5
 70
     1
102
RTVSPropertyOp6
 70
     1
102
RTVSPropertyOp7
 70
     1
102
RTVSPropertyOp8
 70
     1
102
RTVSPropertyOp9
 70
     1
102
RTVSPropertyOp10
 70
     1
102
RTVSPropertyOp11
 70
     1
102
RTVSPropertyOp12
 70
     1
102
RTVSPropertyOp13
 70
     1
102
RTVSPropertyOp14
 70
     1
102
RTVSPropertyOp15
 70
     1
102
RTVSPropertyOp16
 70
     1
102
RTVSPropertyOp17
 70
     1
102
RTVSPropertyOp18
 70
     1
102
RTVSPropertyOp19
 70
     1
102
RTVSPropertyOp20
 70
     1
102
RTVSPropertyOp21
 70
     1
102
RTVSPropertyOp22
 70
     1
102
RTVSPropertyOp23
 70
     1
102
RTVSPropertyOp24
 70
     1
102
RTVSPropertyOp25
 70
     1
102
RTVSPropertyOp26
 70
     1
102
RTVSPropertyOp27
 70
     1
102
RTVSPropertyOp28
 70
     1
102
RTVSPropertyOp29
 70
     1
102
RTVSPropertyOp30
 70
     1
102
RTVSPropertyOp31
 70
     1
102
RTVSPropertyOp32
 70
     1
102
RTVSPropertyOp33
 70
     1
102
RTVSPropertyOp34
 70
     1
102
RTVSPropertyOp35
 70
     1
102
RTVSPropertyOp36
 70
     1
102
RTVSPropertyOp37
 70
     1
102
RTVSPropertyOp38
 70
     1
102
RTVSPropertyOp39
 70
     1
102
RTVSPropertyOp40
 70
     1
102
RTVSPropertyOp41
 70
     1
102
RTVSPropertyOp42
 70
     1
102
RTVSPropertyOp43
 70
     1
102
RTVSPropertyOp44
 70
     1
102
RTVSPropertyOp45
 70
     1
102
RTVSPropertyOp46
 70
     1
102
RTVSPropertyOp47
 70
     1
102
RTVSPropertyOp48
 70
     1
102
RTVSPropertyOp49
 70
     1
102
RTVSPropertyOp50
 70
     1
102
RTVSPropertyOp51
 70
     0
102
RTVSPropertyOp52
 70
     0
102
RTVSPropertyOp53
 70
     1
102
RTVSPropertyOp54
 70
     1
102
RTVSPropertyOp55
 70
     1
102
RTVSPropertyOp56
 70
     1
102
RTVSPropertyOp57
 70
     1
102
RTVSPost2010Prop28
280
     0
102
RTVSPost2010PropOp28
 70
     1
102
RTVSPost2010Prop29
280
     1
102
RTVSPost2010PropOp29
 70
     1
102
RTVSPost2010Prop30
280
     1
102
RTVSPost2010PropOp30
 70
     1
102
RTVSPost2010Prop31
280
     0
102
RTVSPost2010PropOp31
 70
     1
102
RTVSPost2010Prop32
280
     0
102
RTVSPost2010PropOp32
 70
     1
102
RTVSPost2010Prop33
280
     0
102
RTVSPost2010PropOp33
 70
     1
102
RTVSPost2010Prop34
280
     0
102
RTVSPost2010PropOp34
 70
     1
102
RTVSPost2010Prop35
280
     0
102
RTVSPost2010PropOp35
 70
     1
102
RTVSPost2010Prop36
280
     0
102
RTVSPost2010PropOp36
 70
     1
102
RTVSPost2010Prop37
 90
       50
102
RTVSPost2010PropOp37
 70
     1
102
RTVSPost2010Prop38
140
0.0
102
RTVSPost2010PropOp38
 70
     1
102
RTVSPost2010Prop39
140
1.0
102
RTVSPost2010PropOp39
 70
     1
102
RTVSPost2010Prop40
 90
        0
102
RTVSPost2010PropOp40
 70
     1
102
RTVSPost2010Prop41ColorIndex
 90
       18
102
RTVSPost2010Prop41ColorRGB
 90
        0
102
RTVSPost2010PropOp41
 70
     1
102
RTVSPost2010Prop42
 90
       50
102
RTVSPost2010PropOp42
 70
     1
102
RTVSPost2010Prop43
 90
        3
102
RTVSPost2010PropOp43
 70
     1
102
RTVSPost2010Prop44ColorIndex
 90
        5
102
RTVSPost2010Prop44ColorRGB
 90
      255
102
RTVSPost2010PropOp44
 70
     1
102
RTVSPost2010Prop45
280
     0
102
RTVSPost2010PropOp45
 70
     1
102
RTVSPost2010Prop46
 90
       50
102
RTVSPost2010PropOp46
 70
     1
102
RTVSPost2010Prop47
 90
       50
102
RTVSPost2010PropOp47
 70
     1
102
RTVSPost2010Prop48
 90
       50
102
RTVSPost2010PropOp48
 70
     1
102
RTVSPost2010Prop49
280
     0
102
RTVSPost2010PropOp49
 70
     1
102
RTVSPost2010Prop50
 90
       50
102
RTVSPost2010PropOp50
 70
     1
102
RTVSPost2010Prop51ColorIndex
 90
      256
102
RTVSPost2010Prop51ColorRGB
 90
-16777216
102
RTVSPost2010PropOp51
 70
     0
102
RTVSPost2010Prop52
140
1.0
102
RTVSPost2010PropOp52
 70
     0
102
RTVSPost2010Prop53
 90
        2
102
RTVSPost2010PropOp53
 70
     1
102
RTVSPost2010Prop54
  1
strokes_ogs.tif
102
RTVSPost2010PropOp54
 70
     1
102
RTVSPost2010Prop55
280
     0
102
RTVSPost2010PropOp55
 70
     1
102
RTVSPost2010Prop56
140
1.0
102
RTVSPost2010PropOp56
 70
     1
102
RTVSPost2010Prop57
140
1.0
102
RTVSPost2010PropOp57
 70
     1
  0
XRECORD
  5
569
102
{ACAD_REACTORS
330
568
102
}
330
568
100
AcDbXrecord
280
     1
102
RTVSPropertyOp0
 70
     1
102
RTVSPropertyOp1
 70
     1
102
RTVSPropertyOp2
 70
     1
102
RTVSPropertyOp3
 70
     1
102
RTVSPropertyOp4
 70
     1
102
RTVSPropertyOp5
 70
     1
102
RTVSPropertyOp6
 70
     1
102
RTVSPropertyOp7
 70
     1
102
RTVSPropertyOp8
 70
     1
102
RTVSPropertyOp9
 70
     1
102
RTVSPropertyOp10
 70
     1
102
RTVSPropertyOp11
 70
     1
102
RTVSPropertyOp12
 70
     1
102
RTVSPropertyOp13
 70
     1
102
RTVSPropertyOp14
 70
     1
102
RTVSPropertyOp15
 70
     1
102
RTVSPropertyOp16
 70
     1
102
RTVSPropertyOp17
 70
     1
102
RTVSPropertyOp18
 70
     1
102
RTVSPropertyOp19
 70
     1
102
RTVSPropertyOp20
 70
     1
102
RTVSPropertyOp21
 70
     1
102
RTVSPropertyOp22
 70
     1
102
RTVSPropertyOp23
 70
     1
102
RTVSPropertyOp24
 70
     1
102
RTVSPropertyOp25
 70
     1
102
RTVSPropertyOp26
 70
     1
102
RTVSPropertyOp27
 70
     1
102
RTVSPropertyOp28
 70
     1
102
RTVSPropertyOp29
 70
     1
102
RTVSPropertyOp30
 70
     1
102
RTVSPropertyOp31
 70
     1
102
RTVSPropertyOp32
 70
     1
102
RTVSPropertyOp33
 70
     1
102
RTVSPropertyOp34
 70
     1
102
RTVSPropertyOp35
 70
     1
102
RTVSPropertyOp36
 70
     1
102
RTVSPropertyOp37
 70
     1
102
RTVSPropertyOp38
 70
     1
102
RTVSPropertyOp39
 70
     1
102
RTVSPropertyOp40
 70
     1
102
RTVSPropertyOp41
 70
     1
102
RTVSPropertyOp42
 70
     1
102
RTVSPropertyOp43
 70
     1
102
RTVSPropertyOp44
 70
     1
102
RTVSPropertyOp45
 70
     1
102
RTVSPropertyOp46
 70
     1
102
RTVSPropertyOp47
 70
     1
102
RTVSPropertyOp48
 70
     1
102
RTVSPropertyOp49
 70
     1
102
RTVSPropertyOp50
 70
     1
102
RTVSPropertyOp51
 70
     0
102
RTVSPropertyOp52
 70
     0
102
RTVSPropertyOp53
 70
     1
102
RTVSPropertyOp54
 70
     1
102
RTVSPropertyOp55
 70
     1
102
RTVSPropertyOp56
 70
     1
102
RTVSPropertyOp57
 70
     1
102
RTVSPost2010Prop28
280
     0
102
RTVSPost2010PropOp28
 70
     1
102
RTVSPost2010Prop29
280
     1
102
RTVSPost2010PropOp29
 70
     1
102
RTVSPost2010Prop30
280
     1
102
RTVSPost2010PropOp30
 70
     1
102
RTVSPost2010Prop31
280
     0
102
RTVSPost2010PropOp31
 70
     1
102
RTVSPost2010Prop32
280
     0
102
RTVSPost2010PropOp32
 70
     1
102
RTVSPost2010Prop33
280
     0
102
RTVSPost2010PropOp33
 70
     1
102
RTVSPost2010Prop34
280
     0
102
RTVSPost2010PropOp34
 70
     1
102
RTVSPost2010Prop35
280
     0
102
RTVSPost2010PropOp35
 70
     1
102
RTVSPost2010Prop36
280
     0
102
RTVSPost2010PropOp36
 70
     1
102
RTVSPost2010Prop37
 90
       50
102
RTVSPost2010PropOp37
 70
     1
102
RTVSPost2010Prop38
140
0.0
102
RTVSPost2010PropOp38
 70
     1
102
RTVSPost2010Prop39
140
1.0
102
RTVSPost2010PropOp39
 70
     1
102
RTVSPost2010Prop40
 90
        0
102
RTVSPost2010PropOp40
 70
     1
102
RTVSPost2010Prop41ColorIndex
 90
       18
102
RTVSPost2010Prop41ColorRGB
 90
        0
102
RTVSPost2010PropOp41
 70
     1
102
RTVSPost2010Prop42
 90
       50
102
RTVSPost2010PropOp42
 70
     1
102
RTVSPost2010Prop43
 90
        3
102
RTVSPost2010PropOp43
 70
     1
102
RTVSPost2010Prop44ColorIndex
 90
        5
102
RTVSPost2010Prop44ColorRGB
 90
      255
102
RTVSPost2010PropOp44
 70
     1
102
RTVSPost2010Prop45
280
     0
102
RTVSPost2010PropOp45
 70
     1
102
RTVSPost2010Prop46
 90
       50
102
RTVSPost2010PropOp46
 70
     1
102
RTVSPost2010Prop47
 90
       50
102
RTVSPost2010PropOp47
 70
     1
102
RTVSPost2010Prop48
 90
       50
102
RTVSPost2010PropOp48
 70
     1
102
RTVSPost2010Prop49
280
     0
102
RTVSPost2010PropOp49
 70
     1
102
RTVSPost2010Prop50
 90
       50
102
RTVSPost2010PropOp50
 70
     1
102
RTVSPost2010Prop51ColorIndex
 90
      256
102
RTVSPost2010Prop51ColorRGB
 90
-16777216
102
RTVSPost2010PropOp51
 70
     0
102
RTVSPost2010Prop52
140
1.0
102
RTVSPost2010PropOp52
 70
     0
102
RTVSPost2010Prop53
 90
        2
102
RTVSPost2010PropOp53
 70
     1
102
RTVSPost2010Prop54
  1
strokes_ogs.tif
102
RTVSPost2010PropOp54
 70
     1
102
RTVSPost2010Prop55
280
     0
102
RTVSPost2010PropOp55
 70
     1
102
RTVSPost2010Prop56
140
1.0
102
RTVSPost2010PropOp56
 70
     1
102
RTVSPost2010Prop57
140
1.0
102
RTVSPost2010PropOp57
 70
     1
  0
XRECORD
  5
56F
102
{ACAD_REACTORS
330
56E
102
}
330
56E
100
AcDbXrecord
280
     1
102
RTVSPropertyOp0
 70
     1
102
RTVSPropertyOp1
 70
     1
102
RTVSPropertyOp2
 70
     1
102
RTVSPropertyOp3
 70
     1
102
RTVSPropertyOp4
 70
     1
102
RTVSPropertyOp5
 70
     1
102
RTVSPropertyOp6
 70
     1
102
RTVSPropertyOp7
 70
     1
102
RTVSPropertyOp8
 70
     1
102
RTVSPropertyOp9
 70
     1
102
RTVSPropertyOp10
 70
     1
102
RTVSPropertyOp11
 70
     1
102
RTVSPropertyOp12
 70
     1
102
RTVSPropertyOp13
 70
     1
102
RTVSPropertyOp14
 70
     1
102
RTVSPropertyOp15
 70
     1
102
RTVSPropertyOp16
 70
     1
102
RTVSPropertyOp17
 70
     1
102
RTVSPropertyOp18
 70
     1
102
RTVSPropertyOp19
 70
     1
102
RTVSPropertyOp20
 70
     1
102
RTVSPropertyOp21
 70
     1
102
RTVSPropertyOp22
 70
     1
102
RTVSPropertyOp23
 70
     1
102
RTVSPropertyOp24
 70
     1
102
RTVSPropertyOp25
 70
     1
102
RTVSPropertyOp26
 70
     1
102
RTVSPropertyOp27
 70
     1
102
RTVSPropertyOp28
 70
     1
102
RTVSPropertyOp29
 70
     1
102
RTVSPropertyOp30
 70
     1
102
RTVSPropertyOp31
 70
     1
102
RTVSPropertyOp32
 70
     1
102
RTVSPropertyOp33
 70
     1
102
RTVSPropertyOp34
 70
     1
102
RTVSPropertyOp35
 70
     1
102
RTVSPropertyOp36
 70
     1
102
RTVSPropertyOp37
 70
     1
102
RTVSPropertyOp38
 70
     1
102
RTVSPropertyOp39
 70
     1
102
RTVSPropertyOp40
 70
     1
102
RTVSPropertyOp41
 70
     1
102
RTVSPropertyOp42
 70
     1
102
RTVSPropertyOp43
 70
     1
102
RTVSPropertyOp44
 70
     1
102
RTVSPropertyOp45
 70
     1
102
RTVSPropertyOp46
 70
     1
102
RTVSPropertyOp47
 70
     1
102
RTVSPropertyOp48
 70
     1
102
RTVSPropertyOp49
 70
     1
102
RTVSPropertyOp50
 70
     1
102
RTVSPropertyOp51
 70
     0
102
RTVSPropertyOp52
 70
     0
102
RTVSPropertyOp53
 70
     1
102
RTVSPropertyOp54
 70
     1
102
RTVSPropertyOp55
 70
     1
102
RTVSPropertyOp56
 70
     1
102
RTVSPropertyOp57
 70
     1
102
RTVSPost2010Prop28
280
     0
102
RTVSPost2010PropOp28
 70
     1
102
RTVSPost2010Prop29
280
     1
102
RTVSPost2010PropOp29
 70
     1
102
RTVSPost2010Prop30
280
     1
102
RTVSPost2010PropOp30
 70
     1
102
RTVSPost2010Prop31
280
     0
102
RTVSPost2010PropOp31
 70
     1
102
RTVSPost2010Prop32
280
     0
102
RTVSPost2010PropOp32
 70
     1
102
RTVSPost2010Prop33
280
     0
102
RTVSPost2010PropOp33
 70
     1
102
RTVSPost2010Prop34
280
     0
102
RTVSPost2010PropOp34
 70
     1
102
RTVSPost2010Prop35
280
     0
102
RTVSPost2010PropOp35
 70
     1
102
RTVSPost2010Prop36
280
     0
102
RTVSPost2010PropOp36
 70
     1
102
RTVSPost2010Prop37
 90
       50
102
RTVSPost2010PropOp37
 70
     1
102
RTVSPost2010Prop38
140
0.0
102
RTVSPost2010PropOp38
 70
     1
102
RTVSPost2010Prop39
140
1.0
102
RTVSPost2010PropOp39
 70
     1
102
RTVSPost2010Prop40
 90
        0
102
RTVSPost2010PropOp40
 70
     1
102
RTVSPost2010Prop41ColorIndex
 90
       18
102
RTVSPost2010Prop41ColorRGB
 90
        0
102
RTVSPost2010PropOp41
 70
     1
102
RTVSPost2010Prop42
 90
       50
102
RTVSPost2010PropOp42
 70
     1
102
RTVSPost2010Prop43
 90
        3
102
RTVSPost2010PropOp43
 70
     1
102
RTVSPost2010Prop44ColorIndex
 90
        5
102
RTVSPost2010Prop44ColorRGB
 90
      255
102
RTVSPost2010PropOp44
 70
     1
102
RTVSPost2010Prop45
280
     0
102
RTVSPost2010PropOp45
 70
     1
102
RTVSPost2010Prop46
 90
       50
102
RTVSPost2010PropOp46
 70
     1
102
RTVSPost2010Prop47
 90
       50
102
RTVSPost2010PropOp47
 70
     1
102
RTVSPost2010Prop48
 90
       50
102
RTVSPost2010PropOp48
 70
     1
102
RTVSPost2010Prop49
280
     0
102
RTVSPost2010PropOp49
 70
     1
102
RTVSPost2010Prop50
 90
       50
102
RTVSPost2010PropOp50
 70
     1
102
RTVSPost2010Prop51ColorIndex
 90
      256
102
RTVSPost2010Prop51ColorRGB
 90
-16777216
102
RTVSPost2010PropOp51
 70
     0
102
RTVSPost2010Prop52
140
1.0
102
RTVSPost2010PropOp52
 70
     0
102
RTVSPost2010Prop53
 90
        2
102
RTVSPost2010PropOp53
 70
     1
102
RTVSPost2010Prop54
  1
strokes_ogs.tif
102
RTVSPost2010PropOp54
 70
     1
102
RTVSPost2010Prop55
280
     0
102
RTVSPost2010PropOp55
 70
     1
102
RTVSPost2010Prop56
140
1.0
102
RTVSPost2010PropOp56
 70
     1
102
RTVSPost2010Prop57
140
1.0
102
RTVSPost2010PropOp57
 70
     1
  0
XRECORD
  5
583
102
{ACAD_REACTORS
330
582
102
}
330
582
100
AcDbXrecord
280
     1
102
RTVSPropertyOp0
 70
     0
102
RTVSPropertyOp1
 70
     0
102
RTVSPropertyOp2
 70
     0
102
RTVSPropertyOp3
 70
     0
102
RTVSPropertyOp4
 70
     0
102
RTVSPropertyOp5
 70
     0
102
RTVSPropertyOp6
 70
     0
102
RTVSPropertyOp7
 70
     0
102
RTVSPropertyOp8
 70
     0
102
RTVSPropertyOp9
 70
     0
102
RTVSPropertyOp10
 70
     0
102
RTVSPropertyOp11
 70
     0
102
RTVSPropertyOp12
 70
     0
102
RTVSPropertyOp13
 70
     0
102
RTVSPropertyOp14
 70
     2
102
RTVSPropertyOp15
 70
     0
102
RTVSPropertyOp16
 70
     0
102
RTVSPropertyOp17
 70
     0
102
RTVSPropertyOp18
 70
     0
102
RTVSPropertyOp19
 70
     0
102
RTVSPropertyOp20
 70
     0
102
RTVSPropertyOp21
 70
     0
102
RTVSPropertyOp22
 70
     0
102
RTVSPropertyOp23
 70
     0
102
RTVSPropertyOp24
 70
     0
102
RTVSPropertyOp25
 70
     0
102
RTVSPropertyOp26
 70
     0
102
RTVSPropertyOp27
 70
     0
102
RTVSPropertyOp28
 70
     0
102
RTVSPropertyOp29
 70
     0
102
RTVSPropertyOp30
 70
     0
102
RTVSPropertyOp31
 70
     0
102
RTVSPropertyOp32
 70
     0
102
RTVSPropertyOp33
 70
     0
102
RTVSPropertyOp34
 70
     0
102
RTVSPropertyOp35
 70
     0
102
RTVSPropertyOp36
 70
     0
102
RTVSPropertyOp37
 70
     0
102
RTVSPropertyOp38
 70
     0
102
RTVSPropertyOp39
 70
     0
102
RTVSPropertyOp40
 70
     0
102
RTVSPropertyOp41
 70
     0
102
RTVSPropertyOp42
 70
     0
102
RTVSPropertyOp43
 70
     0
102
RTVSPropertyOp44
 70
     0
102
RTVSPropertyOp45
 70
     0
102
RTVSPropertyOp46
 70
     0
102
RTVSPropertyOp47
 70
     0
102
RTVSPropertyOp48
 70
     0
102
RTVSPropertyOp49
 70
     0
102
RTVSPropertyOp50
 70
     0
102
RTVSPropertyOp51
 70
     0
102
RTVSPropertyOp52
 70
     0
102
RTVSPropertyOp53
 70
     0
102
RTVSPropertyOp54
 70
     0
102
RTVSPropertyOp55
 70
     0
102
RTVSPropertyOp56
 70
     0
102
RTVSPropertyOp57
 70
     0
102
RTVSPost2010Prop28
280
     0
102
RTVSPost2010PropOp28
 70
     0
102
RTVSPost2010Prop29
280
     1
102
RTVSPost2010PropOp29
 70
     0
102
RTVSPost2010Prop30
280
     1
102
RTVSPost2010PropOp30
 70
     0
102
RTVSPost2010Prop31
280
     0
102
RTVSPost2010PropOp31
 70
     0
102
RTVSPost2010Prop32
280
     0
102
RTVSPost2010PropOp32
 70
     0
102
RTVSPost2010Prop33
280
     0
102
RTVSPost2010PropOp33
 70
     0
102
RTVSPost2010Prop34
280
     0
102
RTVSPost2010PropOp34
 70
     0
102
RTVSPost2010Prop35
280
     0
102
RTVSPost2010PropOp35
 70
     0
102
RTVSPost2010Prop36
280
     0
102
RTVSPost2010PropOp36
 70
     0
102
RTVSPost2010Prop37
 90
       50
102
RTVSPost2010PropOp37
 70
     0
102
RTVSPost2010Prop38
140
0.0
102
RTVSPost2010PropOp38
 70
     0
102
RTVSPost2010Prop39
140
1.0
102
RTVSPost2010PropOp39
 70
     0
102
RTVSPost2010Prop40
 90
        0
102
RTVSPost2010PropOp40
 70
     0
102
RTVSPost2010Prop41ColorIndex
 90
       18
102
RTVSPost2010Prop41ColorRGB
 90
        0
102
RTVSPost2010PropOp41
 70
     0
102
RTVSPost2010Prop42
 90
       50
102
RTVSPost2010PropOp42
 70
     0
102
RTVSPost2010Prop43
 90
        3
102
RTVSPost2010PropOp43
 70
     0
102
RTVSPost2010Prop44ColorIndex
 90
        5
102
RTVSPost2010Prop44ColorRGB
 90
      255
102
RTVSPost2010PropOp44
 70
     0
102
RTVSPost2010Prop45
280
     0
102
RTVSPost2010PropOp45
 70
     0
102
RTVSPost2010Prop46
 90
       50
102
RTVSPost2010PropOp46
 70
     0
102
RTVSPost2010Prop47
 90
       50
102
RTVSPost2010PropOp47
 70
     0
102
RTVSPost2010Prop48
 90
       50
102
RTVSPost2010PropOp48
 70
     0
102
RTVSPost2010Prop49
280
     0
102
RTVSPost2010PropOp49
 70
     0
102
RTVSPost2010Prop50
 90
       50
102
RTVSPost2010PropOp50
 70
     0
102
RTVSPost2010Prop51ColorIndex
 90
      256
102
RTVSPost2010Prop51ColorRGB
 90
-16777216
102
RTVSPost2010PropOp51
 70
     0
102
RTVSPost2010Prop52
140
1.0
102
RTVSPost2010PropOp52
 70
     0
102
RTVSPost2010Prop53
 90
        2
102
RTVSPost2010PropOp53
 70
     0
102
RTVSPost2010Prop54
  1
strokes_ogs.tif
102
RTVSPost2010PropOp54
 70
     0
102
RTVSPost2010Prop55
280
     0
102
RTVSPost2010PropOp55
 70
     0
102
RTVSPost2010Prop56
140
1.0
102
RTVSPost2010PropOp56
 70
     0
102
RTVSPost2010Prop57
140
1.0
102
RTVSPost2010PropOp57
 70
     0
  0
XRECORD
  5
57D
102
{ACAD_REACTORS
330
57C
102
}
330
57C
100
AcDbXrecord
280
     1
102
RTVSPropertyOp0
 70
     1
102
RTVSPropertyOp1
 70
     1
102
RTVSPropertyOp2
 70
     1
102
RTVSPropertyOp3
 70
     1
102
RTVSPropertyOp4
 70
     1
102
RTVSPropertyOp5
 70
     1
102
RTVSPropertyOp6
 70
     1
102
RTVSPropertyOp7
 70
     1
102
RTVSPropertyOp8
 70
     1
102
RTVSPropertyOp9
 70
     1
102
RTVSPropertyOp10
 70
     1
102
RTVSPropertyOp11
 70
     1
102
RTVSPropertyOp12
 70
     1
102
RTVSPropertyOp13
 70
     1
102
RTVSPropertyOp14
 70
     1
102
RTVSPropertyOp15
 70
     1
102
RTVSPropertyOp16
 70
     1
102
RTVSPropertyOp17
 70
     1
102
RTVSPropertyOp18
 70
     1
102
RTVSPropertyOp19
 70
     1
102
RTVSPropertyOp20
 70
     1
102
RTVSPropertyOp21
 70
     1
102
RTVSPropertyOp22
 70
     1
102
RTVSPropertyOp23
 70
     1
102
RTVSPropertyOp24
 70
     1
102
RTVSPropertyOp25
 70
     1
102
RTVSPropertyOp26
 70
     1
102
RTVSPropertyOp27
 70
     1
102
RTVSPropertyOp28
 70
     1
102
RTVSPropertyOp29
 70
     1
102
RTVSPropertyOp30
 70
     1
102
RTVSPropertyOp31
 70
     1
102
RTVSPropertyOp32
 70
     1
102
RTVSPropertyOp33
 70
     1
102
RTVSPropertyOp34
 70
     1
102
RTVSPropertyOp35
 70
     1
102
RTVSPropertyOp36
 70
     1
102
RTVSPropertyOp37
 70
     1
102
RTVSPropertyOp38
 70
     1
102
RTVSPropertyOp39
 70
     1
102
RTVSPropertyOp40
 70
     1
102
RTVSPropertyOp41
 70
     1
102
RTVSPropertyOp42
 70
     1
102
RTVSPropertyOp43
 70
     1
102
RTVSPropertyOp44
 70
     1
102
RTVSPropertyOp45
 70
     1
102
RTVSPropertyOp46
 70
     1
102
RTVSPropertyOp47
 70
     1
102
RTVSPropertyOp48
 70
     1
102
RTVSPropertyOp49
 70
     1
102
RTVSPropertyOp50
 70
     1
102
RTVSPropertyOp51
 70
     0
102
RTVSPropertyOp52
 70
     0
102
RTVSPropertyOp53
 70
     1
102
RTVSPropertyOp54
 70
     1
102
RTVSPropertyOp55
 70
     1
102
RTVSPropertyOp56
 70
     1
102
RTVSPropertyOp57
 70
     1
102
RTVSPost2010Prop28
280
     0
102
RTVSPost2010PropOp28
 70
     1
102
RTVSPost2010Prop29
280
     1
102
RTVSPost2010PropOp29
 70
     1
102
RTVSPost2010Prop30
280
     1
102
RTVSPost2010PropOp30
 70
     1
102
RTVSPost2010Prop31
280
     0
102
RTVSPost2010PropOp31
 70
     1
102
RTVSPost2010Prop32
280
     0
102
RTVSPost2010PropOp32
 70
     1
102
RTVSPost2010Prop33
280
     0
102
RTVSPost2010PropOp33
 70
     1
102
RTVSPost2010Prop34
280
     0
102
RTVSPost2010PropOp34
 70
     1
102
RTVSPost2010Prop35
280
     0
102
RTVSPost2010PropOp35
 70
     1
102
RTVSPost2010Prop36
280
     0
102
RTVSPost2010PropOp36
 70
     1
102
RTVSPost2010Prop37
 90
       50
102
RTVSPost2010PropOp37
 70
     1
102
RTVSPost2010Prop38
140
0.0
102
RTVSPost2010PropOp38
 70
     1
102
RTVSPost2010Prop39
140
1.0
102
RTVSPost2010PropOp39
 70
     1
102
RTVSPost2010Prop40
 90
        0
102
RTVSPost2010PropOp40
 70
     1
102
RTVSPost2010Prop41ColorIndex
 90
       18
102
RTVSPost2010Prop41ColorRGB
 90
        0
102
RTVSPost2010PropOp41
 70
     1
102
RTVSPost2010Prop42
 90
       50
102
RTVSPost2010PropOp42
 70
     1
102
RTVSPost2010Prop43
 90
        3
102
RTVSPost2010PropOp43
 70
     1
102
RTVSPost2010Prop44ColorIndex
 90
        5
102
RTVSPost2010Prop44ColorRGB
 90
      255
102
RTVSPost2010PropOp44
 70
     1
102
RTVSPost2010Prop45
280
     0
102
RTVSPost2010PropOp45
 70
     1
102
RTVSPost2010Prop46
 90
       50
102
RTVSPost2010PropOp46
 70
     1
102
RTVSPost2010Prop47
 90
       50
102
RTVSPost2010PropOp47
 70
     1
102
RTVSPost2010Prop48
 90
       50
102
RTVSPost2010PropOp48
 70
     1
102
RTVSPost2010Prop49
280
     0
102
RTVSPost2010PropOp49
 70
     1
102
RTVSPost2010Prop50
 90
       50
102
RTVSPost2010PropOp50
 70
     1
102
RTVSPost2010Prop51ColorIndex
 90
      256
102
RTVSPost2010Prop51ColorRGB
 90
-16777216
102
RTVSPost2010PropOp51
 70
     0
102
RTVSPost2010Prop52
140
1.0
102
RTVSPost2010PropOp52
 70
     0
102
RTVSPost2010Prop53
 90
        2
102
RTVSPost2010PropOp53
 70
     1
102
RTVSPost2010Prop54
  1
strokes_ogs.tif
102
RTVSPost2010PropOp54
 70
     1
102
RTVSPost2010Prop55
280
     0
102
RTVSPost2010PropOp55
 70
     1
102
RTVSPost2010Prop56
140
1.0
102
RTVSPost2010PropOp56
 70
     1
102
RTVSPost2010Prop57
140
1.0
102
RTVSPost2010PropOp57
 70
     1
  0
XRECORD
  5
585
102
{ACAD_REACTORS
330
584
102
}
330
584
100
AcDbXrecord
280
     1
102
RTVSPropertyOp0
 70
     0
102
RTVSPropertyOp1
 70
     0
102
RTVSPropertyOp2
 70
     0
102
RTVSPropertyOp3
 70
     0
102
RTVSPropertyOp4
 70
     0
102
RTVSPropertyOp5
 70
     0
102
RTVSPropertyOp6
 70
     0
102
RTVSPropertyOp7
 70
     0
102
RTVSPropertyOp8
 70
     0
102
RTVSPropertyOp9
 70
     0
102
RTVSPropertyOp10
 70
     0
102
RTVSPropertyOp11
 70
     0
102
RTVSPropertyOp12
 70
     0
102
RTVSPropertyOp13
 70
     0
102
RTVSPropertyOp14
 70
     2
102
RTVSPropertyOp15
 70
     0
102
RTVSPropertyOp16
 70
     0
102
RTVSPropertyOp17
 70
     0
102
RTVSPropertyOp18
 70
     0
102
RTVSPropertyOp19
 70
     0
102
RTVSPropertyOp20
 70
     0
102
RTVSPropertyOp21
 70
     0
102
RTVSPropertyOp22
 70
     0
102
RTVSPropertyOp23
 70
     0
102
RTVSPropertyOp24
 70
     0
102
RTVSPropertyOp25
 70
     0
102
RTVSPropertyOp26
 70
     0
102
RTVSPropertyOp27
 70
     0
102
RTVSPropertyOp28
 70
     0
102
RTVSPropertyOp29
 70
     0
102
RTVSPropertyOp30
 70
     0
102
RTVSPropertyOp31
 70
     0
102
RTVSPropertyOp32
 70
     0
102
RTVSPropertyOp33
 70
     0
102
RTVSPropertyOp34
 70
     0
102
RTVSPropertyOp35
 70
     0
102
RTVSPropertyOp36
 70
     0
102
RTVSPropertyOp37
 70
     0
102
RTVSPropertyOp38
 70
     0
102
RTVSPropertyOp39
 70
     0
102
RTVSPropertyOp40
 70
     0
102
RTVSPropertyOp41
 70
     0
102
RTVSPropertyOp42
 70
     0
102
RTVSPropertyOp43
 70
     0
102
RTVSPropertyOp44
 70
     0
102
RTVSPropertyOp45
 70
     0
102
RTVSPropertyOp46
 70
     0
102
RTVSPropertyOp47
 70
     0
102
RTVSPropertyOp48
 70
     0
102
RTVSPropertyOp49
 70
     0
102
RTVSPropertyOp50
 70
     0
102
RTVSPropertyOp51
 70
     0
102
RTVSPropertyOp52
 70
     0
102
RTVSPropertyOp53
 70
     0
102
RTVSPropertyOp54
 70
     0
102
RTVSPropertyOp55
 70
     0
102
RTVSPropertyOp56
 70
     0
102
RTVSPropertyOp57
 70
     0
102
RTVSPost2010Prop28
280
     0
102
RTVSPost2010PropOp28
 70
     0
102
RTVSPost2010Prop29
280
     1
102
RTVSPost2010PropOp29
 70
     0
102
RTVSPost2010Prop30
280
     1
102
RTVSPost2010PropOp30
 70
     0
102
RTVSPost2010Prop31
280
     0
102
RTVSPost2010PropOp31
 70
     0
102
RTVSPost2010Prop32
280
     0
102
RTVSPost2010PropOp32
 70
     0
102
RTVSPost2010Prop33
280
     0
102
RTVSPost2010PropOp33
 70
     0
102
RTVSPost2010Prop34
280
     0
102
RTVSPost2010PropOp34
 70
     0
102
RTVSPost2010Prop35
280
     0
102
RTVSPost2010PropOp35
 70
     0
102
RTVSPost2010Prop36
280
     0
102
RTVSPost2010PropOp36
 70
     0
102
RTVSPost2010Prop37
 90
       50
102
RTVSPost2010PropOp37
 70
     0
102
RTVSPost2010Prop38
140
0.0
102
RTVSPost2010PropOp38
 70
     0
102
RTVSPost2010Prop39
140
1.0
102
RTVSPost2010PropOp39
 70
     0
102
RTVSPost2010Prop40
 90
        0
102
RTVSPost2010PropOp40
 70
     0
102
RTVSPost2010Prop41ColorIndex
 90
       18
102
RTVSPost2010Prop41ColorRGB
 90
        0
102
RTVSPost2010PropOp41
 70
     0
102
RTVSPost2010Prop42
 90
       50
102
RTVSPost2010PropOp42
 70
     0
102
RTVSPost2010Prop43
 90
        3
102
RTVSPost2010PropOp43
 70
     0
102
RTVSPost2010Prop44ColorIndex
 90
        5
102
RTVSPost2010Prop44ColorRGB
 90
      255
102
RTVSPost2010PropOp44
 70
     0
102
RTVSPost2010Prop45
280
     0
102
RTVSPost2010PropOp45
 70
     0
102
RTVSPost2010Prop46
 90
       50
102
RTVSPost2010PropOp46
 70
     0
102
RTVSPost2010Prop47
 90
       50
102
RTVSPost2010PropOp47
 70
     0
102
RTVSPost2010Prop48
 90
       50
102
RTVSPost2010PropOp48
 70
     0
102
RTVSPost2010Prop49
280
     0
102
RTVSPost2010PropOp49
 70
     0
102
RTVSPost2010Prop50
 90
       50
102
RTVSPost2010PropOp50
 70
     0
102
RTVSPost2010Prop51ColorIndex
 90
      256
102
RTVSPost2010Prop51ColorRGB
 90
-16777216
102
RTVSPost2010PropOp51
 70
     0
102
RTVSPost2010Prop52
140
1.0
102
RTVSPost2010PropOp52
 70
     0
102
RTVSPost2010Prop53
 90
        2
102
RTVSPost2010PropOp53
 70
     0
102
RTVSPost2010Prop54
  1
strokes_ogs.tif
102
RTVSPost2010PropOp54
 70
     0
102
RTVSPost2010Prop55
280
     0
102
RTVSPost2010PropOp55
 70
     0
102
RTVSPost2010Prop56
140
1.0
102
RTVSPost2010PropOp56
 70
     0
102
RTVSPost2010Prop57
140
1.0
102
RTVSPost2010PropOp57
 70
     0
  0
XRECORD
  5
573
102
{ACAD_REACTORS
330
572
102
}
330
572
100
AcDbXrecord
280
     1
102
RTVSPropertyOp0
 70
     1
102
RTVSPropertyOp1
 70
     1
102
RTVSPropertyOp2
 70
     1
102
RTVSPropertyOp3
 70
     1
102
RTVSPropertyOp4
 70
     1
102
RTVSPropertyOp5
 70
     1
102
RTVSPropertyOp6
 70
     1
102
RTVSPropertyOp7
 70
     1
102
RTVSPropertyOp8
 70
     1
102
RTVSPropertyOp9
 70
     1
102
RTVSPropertyOp10
 70
     1
102
RTVSPropertyOp11
 70
     1
102
RTVSPropertyOp12
 70
     1
102
RTVSPropertyOp13
 70
     1
102
RTVSPropertyOp14
 70
     1
102
RTVSPropertyOp15
 70
     1
102
RTVSPropertyOp16
 70
     1
102
RTVSPropertyOp17
 70
     1
102
RTVSPropertyOp18
 70
     1
102
RTVSPropertyOp19
 70
     1
102
RTVSPropertyOp20
 70
     1
102
RTVSPropertyOp21
 70
     1
102
RTVSPropertyOp22
 70
     1
102
RTVSPropertyOp23
 70
     1
102
RTVSPropertyOp24
 70
     1
102
RTVSPropertyOp25
 70
     1
102
RTVSPropertyOp26
 70
     1
102
RTVSPropertyOp27
 70
     1
102
RTVSPropertyOp28
 70
     1
102
RTVSPropertyOp29
 70
     1
102
RTVSPropertyOp30
 70
     1
102
RTVSPropertyOp31
 70
     1
102
RTVSPropertyOp32
 70
     1
102
RTVSPropertyOp33
 70
     1
102
RTVSPropertyOp34
 70
     1
102
RTVSPropertyOp35
 70
     1
102
RTVSPropertyOp36
 70
     1
102
RTVSPropertyOp37
 70
     1
102
RTVSPropertyOp38
 70
     1
102
RTVSPropertyOp39
 70
     1
102
RTVSPropertyOp40
 70
     1
102
RTVSPropertyOp41
 70
     1
102
RTVSPropertyOp42
 70
     1
102
RTVSPropertyOp43
 70
     1
102
RTVSPropertyOp44
 70
     1
102
RTVSPropertyOp45
 70
     1
102
RTVSPropertyOp46
 70
     1
102
RTVSPropertyOp47
 70
     1
102
RTVSPropertyOp48
 70
     1
102
RTVSPropertyOp49
 70
     1
102
RTVSPropertyOp50
 70
     1
102
RTVSPropertyOp51
 70
     0
102
RTVSPropertyOp52
 70
     0
102
RTVSPropertyOp53
 70
     1
102
RTVSPropertyOp54
 70
     1
102
RTVSPropertyOp55
 70
     1
102
RTVSPropertyOp56
 70
     1
102
RTVSPropertyOp57
 70
     1
102
RTVSPost2010Prop28
280
     0
102
RTVSPost2010PropOp28
 70
     1
102
RTVSPost2010Prop29
280
     1
102
RTVSPost2010PropOp29
 70
     1
102
RTVSPost2010Prop30
280
     1
102
RTVSPost2010PropOp30
 70
     1
102
RTVSPost2010Prop31
280
     0
102
RTVSPost2010PropOp31
 70
     1
102
RTVSPost2010Prop32
280
     0
102
RTVSPost2010PropOp32
 70
     1
102
RTVSPost2010Prop33
280
     0
102
RTVSPost2010PropOp33
 70
     1
102
RTVSPost2010Prop34
280
     0
102
RTVSPost2010PropOp34
 70
     1
102
RTVSPost2010Prop35
280
     0
102
RTVSPost2010PropOp35
 70
     1
102
RTVSPost2010Prop36
280
     0
102
RTVSPost2010PropOp36
 70
     1
102
RTVSPost2010Prop37
 90
       50
102
RTVSPost2010PropOp37
 70
     1
102
RTVSPost2010Prop38
140
0.0
102
RTVSPost2010PropOp38
 70
     1
102
RTVSPost2010Prop39
140
1.0
102
RTVSPost2010PropOp39
 70
     1
102
RTVSPost2010Prop40
 90
        0
102
RTVSPost2010PropOp40
 70
     1
102
RTVSPost2010Prop41ColorIndex
 90
       18
102
RTVSPost2010Prop41ColorRGB
 90
        0
102
RTVSPost2010PropOp41
 70
     1
102
RTVSPost2010Prop42
 90
       50
102
RTVSPost2010PropOp42
 70
     1
102
RTVSPost2010Prop43
 90
        3
102
RTVSPost2010PropOp43
 70
     1
102
RTVSPost2010Prop44ColorIndex
 90
        5
102
RTVSPost2010Prop44ColorRGB
 90
      255
102
RTVSPost2010PropOp44
 70
     1
102
RTVSPost2010Prop45
280
     0
102
RTVSPost2010PropOp45
 70
     1
102
RTVSPost2010Prop46
 90
       50
102
RTVSPost2010PropOp46
 70
     1
102
RTVSPost2010Prop47
 90
       50
102
RTVSPost2010PropOp47
 70
     1
102
RTVSPost2010Prop48
 90
       50
102
RTVSPost2010PropOp48
 70
     1
102
RTVSPost2010Prop49
280
     0
102
RTVSPost2010PropOp49
 70
     1
102
RTVSPost2010Prop50
 90
       50
102
RTVSPost2010PropOp50
 70
     1
102
RTVSPost2010Prop51ColorIndex
 90
      256
102
RTVSPost2010Prop51ColorRGB
 90
-16777216
102
RTVSPost2010PropOp51
 70
     0
102
RTVSPost2010Prop52
140
1.0
102
RTVSPost2010PropOp52
 70
     0
102
RTVSPost2010Prop53
 90
        2
102
RTVSPost2010PropOp53
 70
     1
102
RTVSPost2010Prop54
  1
strokes_ogs.tif
102
RTVSPost2010PropOp54
 70
     1
102
RTVSPost2010Prop55
280
     0
102
RTVSPost2010PropOp55
 70
     1
102
RTVSPost2010Prop56
140
1.0
102
RTVSPost2010PropOp56
 70
     1
102
RTVSPost2010Prop57
140
1.0
102
RTVSPost2010PropOp57
 70
     1
  0
XRECORD
  5
591
102
{ACAD_REACTORS
330
590
102
}
330
590
100
AcDbXrecord
280
     1
102
RTVSPropertyOp0
 70
     1
102
RTVSPropertyOp1
 70
     1
102
RTVSPropertyOp2
 70
     1
102
RTVSPropertyOp3
 70
     1
102
RTVSPropertyOp4
 70
     1
102
RTVSPropertyOp5
 70
     1
102
RTVSPropertyOp6
 70
     1
102
RTVSPropertyOp7
 70
     1
102
RTVSPropertyOp8
 70
     1
102
RTVSPropertyOp9
 70
     1
102
RTVSPropertyOp10
 70
     1
102
RTVSPropertyOp11
 70
     1
102
RTVSPropertyOp12
 70
     1
102
RTVSPropertyOp13
 70
     1
102
RTVSPropertyOp14
 70
     1
102
RTVSPropertyOp15
 70
     1
102
RTVSPropertyOp16
 70
     1
102
RTVSPropertyOp17
 70
     1
102
RTVSPropertyOp18
 70
     1
102
RTVSPropertyOp19
 70
     1
102
RTVSPropertyOp20
 70
     1
102
RTVSPropertyOp21
 70
     1
102
RTVSPropertyOp22
 70
     1
102
RTVSPropertyOp23
 70
     1
102
RTVSPropertyOp24
 70
     1
102
RTVSPropertyOp25
 70
     1
102
RTVSPropertyOp26
 70
     1
102
RTVSPropertyOp27
 70
     1
102
RTVSPropertyOp28
 70
     1
102
RTVSPropertyOp29
 70
     1
102
RTVSPropertyOp30
 70
     1
102
RTVSPropertyOp31
 70
     1
102
RTVSPropertyOp32
 70
     1
102
RTVSPropertyOp33
 70
     1
102
RTVSPropertyOp34
 70
     1
102
RTVSPropertyOp35
 70
     1
102
RTVSPropertyOp36
 70
     1
102
RTVSPropertyOp37
 70
     1
102
RTVSPropertyOp38
 70
     1
102
RTVSPropertyOp39
 70
     1
102
RTVSPropertyOp40
 70
     1
102
RTVSPropertyOp41
 70
     1
102
RTVSPropertyOp42
 70
     1
102
RTVSPropertyOp43
 70
     1
102
RTVSPropertyOp44
 70
     1
102
RTVSPropertyOp45
 70
     1
102
RTVSPropertyOp46
 70
     1
102
RTVSPropertyOp47
 70
     1
102
RTVSPropertyOp48
 70
     1
102
RTVSPropertyOp49
 70
     1
102
RTVSPropertyOp50
 70
     1
102
RTVSPropertyOp51
 70
     0
102
RTVSPropertyOp52
 70
     0
102
RTVSPropertyOp53
 70
     1
102
RTVSPropertyOp54
 70
     1
102
RTVSPropertyOp55
 70
     1
102
RTVSPropertyOp56
 70
     1
102
RTVSPropertyOp57
 70
     1
102
RTVSPost2010Prop28
280
     0
102
RTVSPost2010PropOp28
 70
     1
102
RTVSPost2010Prop29
280
     1
102
RTVSPost2010PropOp29
 70
     1
102
RTVSPost2010Prop30
280
     1
102
RTVSPost2010PropOp30
 70
     1
102
RTVSPost2010Prop31
280
     0
102
RTVSPost2010PropOp31
 70
     1
102
RTVSPost2010Prop32
280
     0
102
RTVSPost2010PropOp32
 70
     1
102
RTVSPost2010Prop33
280
     0
102
RTVSPost2010PropOp33
 70
     1
102
RTVSPost2010Prop34
280
     0
102
RTVSPost2010PropOp34
 70
     1
102
RTVSPost2010Prop35
280
     0
102
RTVSPost2010PropOp35
 70
     1
102
RTVSPost2010Prop36
280
     0
102
RTVSPost2010PropOp36
 70
     1
102
RTVSPost2010Prop37
 90
       50
102
RTVSPost2010PropOp37
 70
     1
102
RTVSPost2010Prop38
140
0.0
102
RTVSPost2010PropOp38
 70
     1
102
RTVSPost2010Prop39
140
1.0
102
RTVSPost2010PropOp39
 70
     1
102
RTVSPost2010Prop40
 90
        0
102
RTVSPost2010PropOp40
 70
     1
102
RTVSPost2010Prop41ColorIndex
 90
       18
102
RTVSPost2010Prop41ColorRGB
 90
        0
102
RTVSPost2010PropOp41
 70
     1
102
RTVSPost2010Prop42
 90
       50
102
RTVSPost2010PropOp42
 70
     1
102
RTVSPost2010Prop43
 90
        3
102
RTVSPost2010PropOp43
 70
     1
102
RTVSPost2010Prop44ColorIndex
 90
        5
102
RTVSPost2010Prop44ColorRGB
 90
      255
102
RTVSPost2010PropOp44
 70
     1
102
RTVSPost2010Prop45
280
     0
102
RTVSPost2010PropOp45
 70
     1
102
RTVSPost2010Prop46
 90
       50
102
RTVSPost2010PropOp46
 70
     1
102
RTVSPost2010Prop47
 90
       50
102
RTVSPost2010PropOp47
 70
     1
102
RTVSPost2010Prop48
 90
       50
102
RTVSPost2010PropOp48
 70
     1
102
RTVSPost2010Prop49
280
     0
102
RTVSPost2010PropOp49
 70
     1
102
RTVSPost2010Prop50
 90
       50
102
RTVSPost2010PropOp50
 70
     1
102
RTVSPost2010Prop51ColorIndex
 90
      256
102
RTVSPost2010Prop51ColorRGB
 90
-16777216
102
RTVSPost2010PropOp51
 70
     0
102
RTVSPost2010Prop52
140
1.0
102
RTVSPost2010PropOp52
 70
     0
102
RTVSPost2010Prop53
 90
        2
102
RTVSPost2010PropOp53
 70
     1
102
RTVSPost2010Prop54
  1
strokes_ogs.tif
102
RTVSPost2010PropOp54
 70
     1
102
RTVSPost2010Prop55
280
     0
102
RTVSPost2010PropOp55
 70
     1
102
RTVSPost2010Prop56
140
1.0
102
RTVSPost2010PropOp56
 70
     1
102
RTVSPost2010Prop57
140
1.0
102
RTVSPost2010PropOp57
 70
     1
  0
XRECORD
  5
58F
102
{ACAD_REACTORS
330
58E
102
}
330
58E
100
AcDbXrecord
280
     1
102
RTVSPropertyOp0
 70
     1
102
RTVSPropertyOp1
 70
     1
102
RTVSPropertyOp2
 70
     1
102
RTVSPropertyOp3
 70
     1
102
RTVSPropertyOp4
 70
     1
102
RTVSPropertyOp5
 70
     1
102
RTVSPropertyOp6
 70
     1
102
RTVSPropertyOp7
 70
     1
102
RTVSPropertyOp8
 70
     1
102
RTVSPropertyOp9
 70
     1
102
RTVSPropertyOp10
 70
     1
102
RTVSPropertyOp11
 70
     1
102
RTVSPropertyOp12
 70
     1
102
RTVSPropertyOp13
 70
     1
102
RTVSPropertyOp14
 70
     1
102
RTVSPropertyOp15
 70
     1
102
RTVSPropertyOp16
 70
     1
102
RTVSPropertyOp17
 70
     1
102
RTVSPropertyOp18
 70
     1
102
RTVSPropertyOp19
 70
     1
102
RTVSPropertyOp20
 70
     1
102
RTVSPropertyOp21
 70
     1
102
RTVSPropertyOp22
 70
     1
102
RTVSPropertyOp23
 70
     1
102
RTVSPropertyOp24
 70
     1
102
RTVSPropertyOp25
 70
     1
102
RTVSPropertyOp26
 70
     1
102
RTVSPropertyOp27
 70
     1
102
RTVSPropertyOp28
 70
     1
102
RTVSPropertyOp29
 70
     1
102
RTVSPropertyOp30
 70
     1
102
RTVSPropertyOp31
 70
     1
102
RTVSPropertyOp32
 70
     1
102
RTVSPropertyOp33
 70
     1
102
RTVSPropertyOp34
 70
     1
102
RTVSPropertyOp35
 70
     1
102
RTVSPropertyOp36
 70
     1
102
RTVSPropertyOp37
 70
     1
102
RTVSPropertyOp38
 70
     1
102
RTVSPropertyOp39
 70
     1
102
RTVSPropertyOp40
 70
     1
102
RTVSPropertyOp41
 70
     1
102
RTVSPropertyOp42
 70
     1
102
RTVSPropertyOp43
 70
     1
102
RTVSPropertyOp44
 70
     1
102
RTVSPropertyOp45
 70
     1
102
RTVSPropertyOp46
 70
     1
102
RTVSPropertyOp47
 70
     1
102
RTVSPropertyOp48
 70
     1
102
RTVSPropertyOp49
 70
     1
102
RTVSPropertyOp50
 70
     1
102
RTVSPropertyOp51
 70
     0
102
RTVSPropertyOp52
 70
     0
102
RTVSPropertyOp53
 70
     1
102
RTVSPropertyOp54
 70
     1
102
RTVSPropertyOp55
 70
     1
102
RTVSPropertyOp56
 70
     1
102
RTVSPropertyOp57
 70
     1
102
RTVSPost2010Prop28
280
     0
102
RTVSPost2010PropOp28
 70
     1
102
RTVSPost2010Prop29
280
     1
102
RTVSPost2010PropOp29
 70
     1
102
RTVSPost2010Prop30
280
     1
102
RTVSPost2010PropOp30
 70
     1
102
RTVSPost2010Prop31
280
     0
102
RTVSPost2010PropOp31
 70
     1
102
RTVSPost2010Prop32
280
     0
102
RTVSPost2010PropOp32
 70
     1
102
RTVSPost2010Prop33
280
     0
102
RTVSPost2010PropOp33
 70
     1
102
RTVSPost2010Prop34
280
     0
102
RTVSPost2010PropOp34
 70
     1
102
RTVSPost2010Prop35
280
     0
102
RTVSPost2010PropOp35
 70
     1
102
RTVSPost2010Prop36
280
     0
102
RTVSPost2010PropOp36
 70
     1
102
RTVSPost2010Prop37
 90
       50
102
RTVSPost2010PropOp37
 70
     1
102
RTVSPost2010Prop38
140
0.0
102
RTVSPost2010PropOp38
 70
     1
102
RTVSPost2010Prop39
140
1.0
102
RTVSPost2010PropOp39
 70
     1
102
RTVSPost2010Prop40
 90
        0
102
RTVSPost2010PropOp40
 70
     1
102
RTVSPost2010Prop41ColorIndex
 90
       18
102
RTVSPost2010Prop41ColorRGB
 90
        0
102
RTVSPost2010PropOp41
 70
     1
102
RTVSPost2010Prop42
 90
       50
102
RTVSPost2010PropOp42
 70
     1
102
RTVSPost2010Prop43
 90
        3
102
RTVSPost2010PropOp43
 70
     1
102
RTVSPost2010Prop44ColorIndex
 90
        5
102
RTVSPost2010Prop44ColorRGB
 90
      255
102
RTVSPost2010PropOp44
 70
     1
102
RTVSPost2010Prop45
280
     0
102
RTVSPost2010PropOp45
 70
     1
102
RTVSPost2010Prop46
 90
       50
102
RTVSPost2010PropOp46
 70
     1
102
RTVSPost2010Prop47
 90
       50
102
RTVSPost2010PropOp47
 70
     1
102
RTVSPost2010Prop48
 90
       50
102
RTVSPost2010PropOp48
 70
     1
102
RTVSPost2010Prop49
280
     0
102
RTVSPost2010PropOp49
 70
     1
102
RTVSPost2010Prop50
 90
       50
102
RTVSPost2010PropOp50
 70
     1
102
RTVSPost2010Prop51ColorIndex
 90
      256
102
RTVSPost2010Prop51ColorRGB
 90
-16777216
102
RTVSPost2010PropOp51
 70
     0
102
RTVSPost2010Prop52
140
1.0
102
RTVSPost2010PropOp52
 70
     0
102
RTVSPost2010Prop53
 90
        2
102
RTVSPost2010PropOp53
 70
     1
102
RTVSPost2010Prop54
  1
strokes_ogs.tif
102
RTVSPost2010PropOp54
 70
     1
102
RTVSPost2010Prop55
280
     0
102
RTVSPost2010PropOp55
 70
     1
102
RTVSPost2010Prop56
140
1.0
102
RTVSPost2010PropOp56
 70
     1
102
RTVSPost2010Prop57
140
1.0
102
RTVSPost2010PropOp57
 70
     1
  0
XRECORD
  5
589
102
{ACAD_REACTORS
330
588
102
}
330
588
100
AcDbXrecord
280
     1
102
RTVSPropertyOp0
 70
     1
102
RTVSPropertyOp1
 70
     1
102
RTVSPropertyOp2
 70
     1
102
RTVSPropertyOp3
 70
     1
102
RTVSPropertyOp4
 70
     1
102
RTVSPropertyOp5
 70
     1
102
RTVSPropertyOp6
 70
     1
102
RTVSPropertyOp7
 70
     1
102
RTVSPropertyOp8
 70
     1
102
RTVSPropertyOp9
 70
     1
102
RTVSPropertyOp10
 70
     1
102
RTVSPropertyOp11
 70
     1
102
RTVSPropertyOp12
 70
     1
102
RTVSPropertyOp13
 70
     1
102
RTVSPropertyOp14
 70
     1
102
RTVSPropertyOp15
 70
     1
102
RTVSPropertyOp16
 70
     1
102
RTVSPropertyOp17
 70
     1
102
RTVSPropertyOp18
 70
     1
102
RTVSPropertyOp19
 70
     1
102
RTVSPropertyOp20
 70
     1
102
RTVSPropertyOp21
 70
     1
102
RTVSPropertyOp22
 70
     1
102
RTVSPropertyOp23
 70
     1
102
RTVSPropertyOp24
 70
     1
102
RTVSPropertyOp25
 70
     1
102
RTVSPropertyOp26
 70
     1
102
RTVSPropertyOp27
 70
     1
102
RTVSPropertyOp28
 70
     1
102
RTVSPropertyOp29
 70
     1
102
RTVSPropertyOp30
 70
     1
102
RTVSPropertyOp31
 70
     1
102
RTVSPropertyOp32
 70
     1
102
RTVSPropertyOp33
 70
     1
102
RTVSPropertyOp34
 70
     1
102
RTVSPropertyOp35
 70
     1
102
RTVSPropertyOp36
 70
     1
102
RTVSPropertyOp37
 70
     1
102
RTVSPropertyOp38
 70
     1
102
RTVSPropertyOp39
 70
     1
102
RTVSPropertyOp40
 70
     1
102
RTVSPropertyOp41
 70
     1
102
RTVSPropertyOp42
 70
     1
102
RTVSPropertyOp43
 70
     1
102
RTVSPropertyOp44
 70
     1
102
RTVSPropertyOp45
 70
     1
102
RTVSPropertyOp46
 70
     1
102
RTVSPropertyOp47
 70
     1
102
RTVSPropertyOp48
 70
     1
102
RTVSPropertyOp49
 70
     1
102
RTVSPropertyOp50
 70
     1
102
RTVSPropertyOp51
 70
     0
102
RTVSPropertyOp52
 70
     0
102
RTVSPropertyOp53
 70
     1
102
RTVSPropertyOp54
 70
     1
102
RTVSPropertyOp55
 70
     1
102
RTVSPropertyOp56
 70
     1
102
RTVSPropertyOp57
 70
     1
102
RTVSPost2010Prop28
280
     0
102
RTVSPost2010PropOp28
 70
     1
102
RTVSPost2010Prop29
280
     1
102
RTVSPost2010PropOp29
 70
     1
102
RTVSPost2010Prop30
280
     1
102
RTVSPost2010PropOp30
 70
     1
102
RTVSPost2010Prop31
280
     0
102
RTVSPost2010PropOp31
 70
     1
102
RTVSPost2010Prop32
280
     0
102
RTVSPost2010PropOp32
 70
     1
102
RTVSPost2010Prop33
280
     0
102
RTVSPost2010PropOp33
 70
     1
102
RTVSPost2010Prop34
280
     0
102
RTVSPost2010PropOp34
 70
     1
102
RTVSPost2010Prop35
280
     0
102
RTVSPost2010PropOp35
 70
     1
102
RTVSPost2010Prop36
280
     0
102
RTVSPost2010PropOp36
 70
     1
102
RTVSPost2010Prop37
 90
       50
102
RTVSPost2010PropOp37
 70
     1
102
RTVSPost2010Prop38
140
0.0
102
RTVSPost2010PropOp38
 70
     1
102
RTVSPost2010Prop39
140
1.0
102
RTVSPost2010PropOp39
 70
     1
102
RTVSPost2010Prop40
 90
        0
102
RTVSPost2010PropOp40
 70
     1
102
RTVSPost2010Prop41ColorIndex
 90
       18
102
RTVSPost2010Prop41ColorRGB
 90
        0
102
RTVSPost2010PropOp41
 70
     1
102
RTVSPost2010Prop42
 90
       50
102
RTVSPost2010PropOp42
 70
     1
102
RTVSPost2010Prop43
 90
        3
102
RTVSPost2010PropOp43
 70
     1
102
RTVSPost2010Prop44ColorIndex
 90
        5
102
RTVSPost2010Prop44ColorRGB
 90
      255
102
RTVSPost2010PropOp44
 70
     1
102
RTVSPost2010Prop45
280
     0
102
RTVSPost2010PropOp45
 70
     1
102
RTVSPost2010Prop46
 90
       50
102
RTVSPost2010PropOp46
 70
     1
102
RTVSPost2010Prop47
 90
       50
102
RTVSPost2010PropOp47
 70
     1
102
RTVSPost2010Prop48
 90
       50
102
RTVSPost2010PropOp48
 70
     1
102
RTVSPost2010Prop49
280
     0
102
RTVSPost2010PropOp49
 70
     1
102
RTVSPost2010Prop50
 90
       50
102
RTVSPost2010PropOp50
 70
     1
102
RTVSPost2010Prop51ColorIndex
 90
      256
102
RTVSPost2010Prop51ColorRGB
 90
-16777216
102
RTVSPost2010PropOp51
 70
     0
102
RTVSPost2010Prop52
140
1.0
102
RTVSPost2010PropOp52
 70
     0
102
RTVSPost2010Prop53
 90
        2
102
RTVSPost2010PropOp53
 70
     1
102
RTVSPost2010Prop54
  1
strokes_ogs.tif
102
RTVSPost2010PropOp54
 70
     1
102
RTVSPost2010Prop55
280
     0
102
RTVSPost2010PropOp55
 70
     1
102
RTVSPost2010Prop56
140
1.0
102
RTVSPost2010PropOp56
 70
     1
102
RTVSPost2010Prop57
140
1.0
102
RTVSPost2010PropOp57
 70
     1
  0
XRECORD
  5
58B
102
{ACAD_REACTORS
330
58A
102
}
330
58A
100
AcDbXrecord
280
     1
102
RTVSPropertyOp0
 70
     1
102
RTVSPropertyOp1
 70
     1
102
RTVSPropertyOp2
 70
     1
102
RTVSPropertyOp3
 70
     1
102
RTVSPropertyOp4
 70
     1
102
RTVSPropertyOp5
 70
     1
102
RTVSPropertyOp6
 70
     1
102
RTVSPropertyOp7
 70
     1
102
RTVSPropertyOp8
 70
     1
102
RTVSPropertyOp9
 70
     1
102
RTVSPropertyOp10
 70
     1
102
RTVSPropertyOp11
 70
     1
102
RTVSPropertyOp12
 70
     1
102
RTVSPropertyOp13
 70
     1
102
RTVSPropertyOp14
 70
     1
102
RTVSPropertyOp15
 70
     1
102
RTVSPropertyOp16
 70
     1
102
RTVSPropertyOp17
 70
     1
102
RTVSPropertyOp18
 70
     1
102
RTVSPropertyOp19
 70
     1
102
RTVSPropertyOp20
 70
     1
102
RTVSPropertyOp21
 70
     1
102
RTVSPropertyOp22
 70
     1
102
RTVSPropertyOp23
 70
     1
102
RTVSPropertyOp24
 70
     1
102
RTVSPropertyOp25
 70
     1
102
RTVSPropertyOp26
 70
     1
102
RTVSPropertyOp27
 70
     1
102
RTVSPropertyOp28
 70
     1
102
RTVSPropertyOp29
 70
     1
102
RTVSPropertyOp30
 70
     1
102
RTVSPropertyOp31
 70
     1
102
RTVSPropertyOp32
 70
     1
102
RTVSPropertyOp33
 70
     1
102
RTVSPropertyOp34
 70
     1
102
RTVSPropertyOp35
 70
     1
102
RTVSPropertyOp36
 70
     1
102
RTVSPropertyOp37
 70
     1
102
RTVSPropertyOp38
 70
     1
102
RTVSPropertyOp39
 70
     1
102
RTVSPropertyOp40
 70
     1
102
RTVSPropertyOp41
 70
     1
102
RTVSPropertyOp42
 70
     1
102
RTVSPropertyOp43
 70
     1
102
RTVSPropertyOp44
 70
     1
102
RTVSPropertyOp45
 70
     1
102
RTVSPropertyOp46
 70
     1
102
RTVSPropertyOp47
 70
     1
102
RTVSPropertyOp48
 70
     1
102
RTVSPropertyOp49
 70
     1
102
RTVSPropertyOp50
 70
     1
102
RTVSPropertyOp51
 70
     0
102
RTVSPropertyOp52
 70
     0
102
RTVSPropertyOp53
 70
     1
102
RTVSPropertyOp54
 70
     1
102
RTVSPropertyOp55
 70
     1
102
RTVSPropertyOp56
 70
     1
102
RTVSPropertyOp57
 70
     1
102
RTVSPost2010Prop28
280
     0
102
RTVSPost2010PropOp28
 70
     1
102
RTVSPost2010Prop29
280
     1
102
RTVSPost2010PropOp29
 70
     1
102
RTVSPost2010Prop30
280
     1
102
RTVSPost2010PropOp30
 70
     1
102
RTVSPost2010Prop31
280
     0
102
RTVSPost2010PropOp31
 70
     1
102
RTVSPost2010Prop32
280
     0
102
RTVSPost2010PropOp32
 70
     1
102
RTVSPost2010Prop33
280
     0
102
RTVSPost2010PropOp33
 70
     1
102
RTVSPost2010Prop34
280
     0
102
RTVSPost2010PropOp34
 70
     1
102
RTVSPost2010Prop35
280
     0
102
RTVSPost2010PropOp35
 70
     1
102
RTVSPost2010Prop36
280
     0
102
RTVSPost2010PropOp36
 70
     1
102
RTVSPost2010Prop37
 90
       50
102
RTVSPost2010PropOp37
 70
     1
102
RTVSPost2010Prop38
140
0.0
102
RTVSPost2010PropOp38
 70
     1
102
RTVSPost2010Prop39
140
1.0
102
RTVSPost2010PropOp39
 70
     1
102
RTVSPost2010Prop40
 90
        0
102
RTVSPost2010PropOp40
 70
     1
102
RTVSPost2010Prop41ColorIndex
 90
       18
102
RTVSPost2010Prop41ColorRGB
 90
        0
102
RTVSPost2010PropOp41
 70
     1
102
RTVSPost2010Prop42
 90
       50
102
RTVSPost2010PropOp42
 70
     1
102
RTVSPost2010Prop43
 90
        3
102
RTVSPost2010PropOp43
 70
     1
102
RTVSPost2010Prop44ColorIndex
 90
        5
102
RTVSPost2010Prop44ColorRGB
 90
      255
102
RTVSPost2010PropOp44
 70
     1
102
RTVSPost2010Prop45
280
     0
102
RTVSPost2010PropOp45
 70
     1
102
RTVSPost2010Prop46
 90
       50
102
RTVSPost2010PropOp46
 70
     1
102
RTVSPost2010Prop47
 90
       50
102
RTVSPost2010PropOp47
 70
     1
102
RTVSPost2010Prop48
 90
       50
102
RTVSPost2010PropOp48
 70
     1
102
RTVSPost2010Prop49
280
     0
102
RTVSPost2010PropOp49
 70
     1
102
RTVSPost2010Prop50
 90
       50
102
RTVSPost2010PropOp50
 70
     1
102
RTVSPost2010Prop51ColorIndex
 90
      256
102
RTVSPost2010Prop51ColorRGB
 90
-16777216
102
RTVSPost2010PropOp51
 70
     0
102
RTVSPost2010Prop52
140
1.0
102
RTVSPost2010PropOp52
 70
     0
102
RTVSPost2010Prop53
 90
        2
102
RTVSPost2010PropOp53
 70
     1
102
RTVSPost2010Prop54
  1
strokes_ogs.tif
102
RTVSPost2010PropOp54
 70
     1
102
RTVSPost2010Prop55
280
     0
102
RTVSPost2010PropOp55
 70
     1
102
RTVSPost2010Prop56
140
1.0
102
RTVSPost2010PropOp56
 70
     1
102
RTVSPost2010Prop57
140
1.0
102
RTVSPost2010PropOp57
 70
     1
  0
XRECORD
  5
57B
102
{ACAD_REACTORS
330
57A
102
}
330
57A
100
AcDbXrecord
280
     1
102
RTVSPropertyOp0
 70
     1
102
RTVSPropertyOp1
 70
     1
102
RTVSPropertyOp2
 70
     1
102
RTVSPropertyOp3
 70
     1
102
RTVSPropertyOp4
 70
     1
102
RTVSPropertyOp5
 70
     1
102
RTVSPropertyOp6
 70
     1
102
RTVSPropertyOp7
 70
     1
102
RTVSPropertyOp8
 70
     1
102
RTVSPropertyOp9
 70
     1
102
RTVSPropertyOp10
 70
     1
102
RTVSPropertyOp11
 70
     1
102
RTVSPropertyOp12
 70
     1
102
RTVSPropertyOp13
 70
     1
102
RTVSPropertyOp14
 70
     1
102
RTVSPropertyOp15
 70
     1
102
RTVSPropertyOp16
 70
     1
102
RTVSPropertyOp17
 70
     1
102
RTVSPropertyOp18
 70
     1
102
RTVSPropertyOp19
 70
     1
102
RTVSPropertyOp20
 70
     1
102
RTVSPropertyOp21
 70
     1
102
RTVSPropertyOp22
 70
     1
102
RTVSPropertyOp23
 70
     1
102
RTVSPropertyOp24
 70
     1
102
RTVSPropertyOp25
 70
     1
102
RTVSPropertyOp26
 70
     1
102
RTVSPropertyOp27
 70
     1
102
RTVSPropertyOp28
 70
     1
102
RTVSPropertyOp29
 70
     1
102
RTVSPropertyOp30
 70
     1
102
RTVSPropertyOp31
 70
     1
102
RTVSPropertyOp32
 70
     1
102
RTVSPropertyOp33
 70
     1
102
RTVSPropertyOp34
 70
     1
102
RTVSPropertyOp35
 70
     1
102
RTVSPropertyOp36
 70
     1
102
RTVSPropertyOp37
 70
     1
102
RTVSPropertyOp38
 70
     1
102
RTVSPropertyOp39
 70
     1
102
RTVSPropertyOp40
 70
     1
102
RTVSPropertyOp41
 70
     1
102
RTVSPropertyOp42
 70
     1
102
RTVSPropertyOp43
 70
     1
102
RTVSPropertyOp44
 70
     1
102
RTVSPropertyOp45
 70
     1
102
RTVSPropertyOp46
 70
     1
102
RTVSPropertyOp47
 70
     1
102
RTVSPropertyOp48
 70
     1
102
RTVSPropertyOp49
 70
     1
102
RTVSPropertyOp50
 70
     1
102
RTVSPropertyOp51
 70
     0
102
RTVSPropertyOp52
 70
     0
102
RTVSPropertyOp53
 70
     1
102
RTVSPropertyOp54
 70
     1
102
RTVSPropertyOp55
 70
     1
102
RTVSPropertyOp56
 70
     1
102
RTVSPropertyOp57
 70
     1
102
RTVSPost2010Prop28
280
     0
102
RTVSPost2010PropOp28
 70
     1
102
RTVSPost2010Prop29
280
     1
102
RTVSPost2010PropOp29
 70
     1
102
RTVSPost2010Prop30
280
     1
102
RTVSPost2010PropOp30
 70
     1
102
RTVSPost2010Prop31
280
     0
102
RTVSPost2010PropOp31
 70
     1
102
RTVSPost2010Prop32
280
     0
102
RTVSPost2010PropOp32
 70
     1
102
RTVSPost2010Prop33
280
     0
102
RTVSPost2010PropOp33
 70
     1
102
RTVSPost2010Prop34
280
     0
102
RTVSPost2010PropOp34
 70
     1
102
RTVSPost2010Prop35
280
     0
102
RTVSPost2010PropOp35
 70
     1
102
RTVSPost2010Prop36
280
     0
102
RTVSPost2010PropOp36
 70
     1
102
RTVSPost2010Prop37
 90
       50
102
RTVSPost2010PropOp37
 70
     1
102
RTVSPost2010Prop38
140
0.0
102
RTVSPost2010PropOp38
 70
     1
102
RTVSPost2010Prop39
140
1.0
102
RTVSPost2010PropOp39
 70
     1
102
RTVSPost2010Prop40
 90
        0
102
RTVSPost2010PropOp40
 70
     1
102
RTVSPost2010Prop41ColorIndex
 90
       18
102
RTVSPost2010Prop41ColorRGB
 90
        0
102
RTVSPost2010PropOp41
 70
     1
102
RTVSPost2010Prop42
 90
       50
102
RTVSPost2010PropOp42
 70
     1
102
RTVSPost2010Prop43
 90
        3
102
RTVSPost2010PropOp43
 70
     1
102
RTVSPost2010Prop44ColorIndex
 90
        5
102
RTVSPost2010Prop44ColorRGB
 90
      255
102
RTVSPost2010PropOp44
 70
     1
102
RTVSPost2010Prop45
280
     0
102
RTVSPost2010PropOp45
 70
     1
102
RTVSPost2010Prop46
 90
       50
102
RTVSPost2010PropOp46
 70
     1
102
RTVSPost2010Prop47
 90
       50
102
RTVSPost2010PropOp47
 70
     1
102
RTVSPost2010Prop48
 90
       50
102
RTVSPost2010PropOp48
 70
     1
102
RTVSPost2010Prop49
280
     0
102
RTVSPost2010PropOp49
 70
     1
102
RTVSPost2010Prop50
 90
       50
102
RTVSPost2010PropOp50
 70
     1
102
RTVSPost2010Prop51ColorIndex
 90
      256
102
RTVSPost2010Prop51ColorRGB
 90
-16777216
102
RTVSPost2010PropOp51
 70
     0
102
RTVSPost2010Prop52
140
1.0
102
RTVSPost2010PropOp52
 70
     0
102
RTVSPost2010Prop53
 90
        2
102
RTVSPost2010PropOp53
 70
     1
102
RTVSPost2010Prop54
  1
strokes_ogs.tif
102
RTVSPost2010PropOp54
 70
     1
102
RTVSPost2010Prop55
280
     0
102
RTVSPost2010PropOp55
 70
     1
102
RTVSPost2010Prop56
140
1.0
102
RTVSPost2010PropOp56
 70
     1
102
RTVSPost2010Prop57
140
1.0
102
RTVSPost2010PropOp57
 70
     1
  0
XRECORD
  5
56D
102
{ACAD_REACTORS
330
56C
102
}
330
56C
100
AcDbXrecord
280
     1
102
RTVSPropertyOp0
 70
     1
102
RTVSPropertyOp1
 70
     1
102
RTVSPropertyOp2
 70
     1
102
RTVSPropertyOp3
 70
     1
102
RTVSPropertyOp4
 70
     1
102
RTVSPropertyOp5
 70
     1
102
RTVSPropertyOp6
 70
     1
102
RTVSPropertyOp7
 70
     1
102
RTVSPropertyOp8
 70
     1
102
RTVSPropertyOp9
 70
     1
102
RTVSPropertyOp10
 70
     1
102
RTVSPropertyOp11
 70
     1
102
RTVSPropertyOp12
 70
     1
102
RTVSPropertyOp13
 70
     1
102
RTVSPropertyOp14
 70
     1
102
RTVSPropertyOp15
 70
     1
102
RTVSPropertyOp16
 70
     1
102
RTVSPropertyOp17
 70
     1
102
RTVSPropertyOp18
 70
     1
102
RTVSPropertyOp19
 70
     1
102
RTVSPropertyOp20
 70
     1
102
RTVSPropertyOp21
 70
     1
102
RTVSPropertyOp22
 70
     1
102
RTVSPropertyOp23
 70
     1
102
RTVSPropertyOp24
 70
     1
102
RTVSPropertyOp25
 70
     1
102
RTVSPropertyOp26
 70
     1
102
RTVSPropertyOp27
 70
     1
102
RTVSPropertyOp28
 70
     1
102
RTVSPropertyOp29
 70
     1
102
RTVSPropertyOp30
 70
     1
102
RTVSPropertyOp31
 70
     1
102
RTVSPropertyOp32
 70
     1
102
RTVSPropertyOp33
 70
     1
102
RTVSPropertyOp34
 70
     1
102
RTVSPropertyOp35
 70
     1
102
RTVSPropertyOp36
 70
     1
102
RTVSPropertyOp37
 70
     1
102
RTVSPropertyOp38
 70
     1
102
RTVSPropertyOp39
 70
     1
102
RTVSPropertyOp40
 70
     1
102
RTVSPropertyOp41
 70
     1
102
RTVSPropertyOp42
 70
     1
102
RTVSPropertyOp43
 70
     1
102
RTVSPropertyOp44
 70
     1
102
RTVSPropertyOp45
 70
     1
102
RTVSPropertyOp46
 70
     1
102
RTVSPropertyOp47
 70
     1
102
RTVSPropertyOp48
 70
     1
102
RTVSPropertyOp49
 70
     1
102
RTVSPropertyOp50
 70
     1
102
RTVSPropertyOp51
 70
     0
102
RTVSPropertyOp52
 70
     0
102
RTVSPropertyOp53
 70
     1
102
RTVSPropertyOp54
 70
     1
102
RTVSPropertyOp55
 70
     1
102
RTVSPropertyOp56
 70
     1
102
RTVSPropertyOp57
 70
     1
102
RTVSPost2010Prop28
280
     0
102
RTVSPost2010PropOp28
 70
     1
102
RTVSPost2010Prop29
280
     1
102
RTVSPost2010PropOp29
 70
     1
102
RTVSPost2010Prop30
280
     1
102
RTVSPost2010PropOp30
 70
     1
102
RTVSPost2010Prop31
280
     0
102
RTVSPost2010PropOp31
 70
     1
102
RTVSPost2010Prop32
280
     0
102
RTVSPost2010PropOp32
 70
     1
102
RTVSPost2010Prop33
280
     0
102
RTVSPost2010PropOp33
 70
     1
102
RTVSPost2010Prop34
280
     0
102
RTVSPost2010PropOp34
 70
     1
102
RTVSPost2010Prop35
280
     0
102
RTVSPost2010PropOp35
 70
     1
102
RTVSPost2010Prop36
280
     0
102
RTVSPost2010PropOp36
 70
     1
102
RTVSPost2010Prop37
 90
       50
102
RTVSPost2010PropOp37
 70
     1
102
RTVSPost2010Prop38
140
0.0
102
RTVSPost2010PropOp38
 70
     1
102
RTVSPost2010Prop39
140
1.0
102
RTVSPost2010PropOp39
 70
     1
102
RTVSPost2010Prop40
 90
        0
102
RTVSPost2010PropOp40
 70
     1
102
RTVSPost2010Prop41ColorIndex
 90
       18
102
RTVSPost2010Prop41ColorRGB
 90
        0
102
RTVSPost2010PropOp41
 70
     1
102
RTVSPost2010Prop42
 90
       50
102
RTVSPost2010PropOp42
 70
     1
102
RTVSPost2010Prop43
 90
        3
102
RTVSPost2010PropOp43
 70
     1
102
RTVSPost2010Prop44ColorIndex
 90
        5
102
RTVSPost2010Prop44ColorRGB
 90
      255
102
RTVSPost2010PropOp44
 70
     1
102
RTVSPost2010Prop45
280
     0
102
RTVSPost2010PropOp45
 70
     1
102
RTVSPost2010Prop46
 90
       50
102
RTVSPost2010PropOp46
 70
     1
102
RTVSPost2010Prop47
 90
       50
102
RTVSPost2010PropOp47
 70
     1
102
RTVSPost2010Prop48
 90
       50
102
RTVSPost2010PropOp48
 70
     1
102
RTVSPost2010Prop49
280
     0
102
RTVSPost2010PropOp49
 70
     1
102
RTVSPost2010Prop50
 90
       50
102
RTVSPost2010PropOp50
 70
     1
102
RTVSPost2010Prop51ColorIndex
 90
      256
102
RTVSPost2010Prop51ColorRGB
 90
-16777216
102
RTVSPost2010PropOp51
 70
     0
102
RTVSPost2010Prop52
140
1.0
102
RTVSPost2010PropOp52
 70
     0
102
RTVSPost2010Prop53
 90
        2
102
RTVSPost2010PropOp53
 70
     1
102
RTVSPost2010Prop54
  1
strokes_ogs.tif
102
RTVSPost2010PropOp54
 70
     1
102
RTVSPost2010Prop55
280
     0
102
RTVSPost2010PropOp55
 70
     1
102
RTVSPost2010Prop56
140
1.0
102
RTVSPost2010PropOp56
 70
     1
102
RTVSPost2010Prop57
140
1.0
102
RTVSPost2010PropOp57
 70
     1
  0
XRECORD
  5
58D
102
{ACAD_REACTORS
330
58C
102
}
330
58C
100
AcDbXrecord
280
     1
102
RTVSPropertyOp0
 70
     1
102
RTVSPropertyOp1
 70
     1
102
RTVSPropertyOp2
 70
     1
102
RTVSPropertyOp3
 70
     1
102
RTVSPropertyOp4
 70
     1
102
RTVSPropertyOp5
 70
     1
102
RTVSPropertyOp6
 70
     1
102
RTVSPropertyOp7
 70
     1
102
RTVSPropertyOp8
 70
     1
102
RTVSPropertyOp9
 70
     1
102
RTVSPropertyOp10
 70
     1
102
RTVSPropertyOp11
 70
     1
102
RTVSPropertyOp12
 70
     1
102
RTVSPropertyOp13
 70
     1
102
RTVSPropertyOp14
 70
     1
102
RTVSPropertyOp15
 70
     1
102
RTVSPropertyOp16
 70
     1
102
RTVSPropertyOp17
 70
     1
102
RTVSPropertyOp18
 70
     1
102
RTVSPropertyOp19
 70
     1
102
RTVSPropertyOp20
 70
     1
102
RTVSPropertyOp21
 70
     1
102
RTVSPropertyOp22
 70
     1
102
RTVSPropertyOp23
 70
     1
102
RTVSPropertyOp24
 70
     1
102
RTVSPropertyOp25
 70
     1
102
RTVSPropertyOp26
 70
     1
102
RTVSPropertyOp27
 70
     1
102
RTVSPropertyOp28
 70
     1
102
RTVSPropertyOp29
 70
     1
102
RTVSPropertyOp30
 70
     1
102
RTVSPropertyOp31
 70
     1
102
RTVSPropertyOp32
 70
     1
102
RTVSPropertyOp33
 70
     1
102
RTVSPropertyOp34
 70
     1
102
RTVSPropertyOp35
 70
     1
102
RTVSPropertyOp36
 70
     1
102
RTVSPropertyOp37
 70
     1
102
RTVSPropertyOp38
 70
     1
102
RTVSPropertyOp39
 70
     1
102
RTVSPropertyOp40
 70
     1
102
RTVSPropertyOp41
 70
     1
102
RTVSPropertyOp42
 70
     1
102
RTVSPropertyOp43
 70
     1
102
RTVSPropertyOp44
 70
     1
102
RTVSPropertyOp45
 70
     1
102
RTVSPropertyOp46
 70
     1
102
RTVSPropertyOp47
 70
     1
102
RTVSPropertyOp48
 70
     1
102
RTVSPropertyOp49
 70
     1
102
RTVSPropertyOp50
 70
     1
102
RTVSPropertyOp51
 70
     0
102
RTVSPropertyOp52
 70
     0
102
RTVSPropertyOp53
 70
     1
102
RTVSPropertyOp54
 70
     1
102
RTVSPropertyOp55
 70
     1
102
RTVSPropertyOp56
 70
     1
102
RTVSPropertyOp57
 70
     1
102
RTVSPost2010Prop28
280
     0
102
RTVSPost2010PropOp28
 70
     1
102
RTVSPost2010Prop29
280
     1
102
RTVSPost2010PropOp29
 70
     1
102
RTVSPost2010Prop30
280
     1
102
RTVSPost2010PropOp30
 70
     1
102
RTVSPost2010Prop31
280
     0
102
RTVSPost2010PropOp31
 70
     1
102
RTVSPost2010Prop32
280
     0
102
RTVSPost2010PropOp32
 70
     1
102
RTVSPost2010Prop33
280
     0
102
RTVSPost2010PropOp33
 70
     1
102
RTVSPost2010Prop34
280
     0
102
RTVSPost2010PropOp34
 70
     1
102
RTVSPost2010Prop35
280
     0
102
RTVSPost2010PropOp35
 70
     1
102
RTVSPost2010Prop36
280
     0
102
RTVSPost2010PropOp36
 70
     1
102
RTVSPost2010Prop37
 90
       50
102
RTVSPost2010PropOp37
 70
     1
102
RTVSPost2010Prop38
140
0.0
102
RTVSPost2010PropOp38
 70
     1
102
RTVSPost2010Prop39
140
1.0
102
RTVSPost2010PropOp39
 70
     1
102
RTVSPost2010Prop40
 90
        0
102
RTVSPost2010PropOp40
 70
     1
102
RTVSPost2010Prop41ColorIndex
 90
       18
102
RTVSPost2010Prop41ColorRGB
 90
        0
102
RTVSPost2010PropOp41
 70
     1
102
RTVSPost2010Prop42
 90
       50
102
RTVSPost2010PropOp42
 70
     1
102
RTVSPost2010Prop43
 90
        3
102
RTVSPost2010PropOp43
 70
     1
102
RTVSPost2010Prop44ColorIndex
 90
        5
102
RTVSPost2010Prop44ColorRGB
 90
      255
102
RTVSPost2010PropOp44
 70
     1
102
RTVSPost2010Prop45
280
     0
102
RTVSPost2010PropOp45
 70
     1
102
RTVSPost2010Prop46
 90
       50
102
RTVSPost2010PropOp46
 70
     1
102
RTVSPost2010Prop47
 90
       50
102
RTVSPost2010PropOp47
 70
     1
102
RTVSPost2010Prop48
 90
       50
102
RTVSPost2010PropOp48
 70
     1
102
RTVSPost2010Prop49
280
     0
102
RTVSPost2010PropOp49
 70
     1
102
RTVSPost2010Prop50
 90
       50
102
RTVSPost2010PropOp50
 70
     1
102
RTVSPost2010Prop51ColorIndex
 90
      256
102
RTVSPost2010Prop51ColorRGB
 90
-16777216
102
RTVSPost2010PropOp51
 70
     0
102
RTVSPost2010Prop52
140
1.0
102
RTVSPost2010PropOp52
 70
     0
102
RTVSPost2010Prop53
 90
        2
102
RTVSPost2010PropOp53
 70
     1
102
RTVSPost2010Prop54
  1
strokes_ogs.tif
102
RTVSPost2010PropOp54
 70
     1
102
RTVSPost2010Prop55
280
     0
102
RTVSPost2010PropOp55
 70
     1
102
RTVSPost2010Prop56
140
1.0
102
RTVSPost2010PropOp56
 70
     1
102
RTVSPost2010Prop57
140
1.0
102
RTVSPost2010PropOp57
 70
     1
  0
ENDSEC
  0
EOF
